Song name
# A B C D E F G H I J K L M N O P Q R S T U V W X Y Z

Name Taken - Cover Up tab

Awesome Band From Orange County CA.
Artist: Name Taken
Album: Hold On
Song: Cover Up

This is what I gatherd from Blake teaching me. Hope this helps



(Guitar 1 - Intro) (x6)
e|----------------------------------------------|
B|----------------------------------------------|
G|----1-----1-----1~----------------------------|
D|---2-2---2-2---2------------------------------|
A|--------------0-------------------------------|
E|-0-----2--------------------------------------|

(Guitar 1 - Verse)
e|---------------------------------------------|
B|---------------------------------------------|
G|-1-111--1-111-111-1-1------------------------|
D|-2-222--2-222-222-2-2------------------------|
A|-2-222--x-xxx-000-0-0------------------------|
E|-0-000--2-222--------------------------------|

It's basically just those chords most the song. I havn't seen a tab for this song so I
decided to put down what I know. Hope this helps.
Tap to rate this tab
# A B C D E F G H I J K L M N O P Q R S T U V W X Y Z