Guitaretab - guitar tabs
Song name
# A B C D E F G H I J K L M N O P Q R S T U V W X Y Z

Name Taken - We Give Up Sometimes tab

Artist: Name Taken
Song: "We Give Up Sometimes"
Album: "Hold On" (2004)
Record Label: Fiddler Records

Tuning: Standard (eADGBE)

- = Palm Mute

Intro/Verse [0:00 - 0:43]

-0-0--0-0--0-0--0-0--0-0--0-0--0-0--0-0--0-0--0-0--0-0--|------------|
-5-5--4-4--5-5--4-4--9-9--7-7--5-5--7-7--5-5--4-4--5-5--|7b-7b 7b 7b-|
--------------------------------------------------------|------------|
--------------------------------------------------------|------------|
--------------------------------------------------------|------------|
--------------------------------------------------------|------------|
                                                         *Intro Only

Bridge [0:43 - 0:56]

-----------------------------------------x-x-x-x-----|
-----------------------------------------x-x-x-x-----|
-6-6-6-6---2-2-2-2---6-6-6-6---2-2-2-2---x-x-x-x-----|
-6-6-6-6---2-2-2-2---6-6-6-6---2-2-2-2---x-x-x-x-----|
-4-4-4-4---0-0-0-0---4-4-4-4---0-0-0-0---x-x-x-x-----|
-----------------------------------------x-x-x-x-----|


Chorus [0:56 - 1:08]

----------------------------------------------|
----------------------------------------------|
-----------6-6-6-6---2-2-2-2---4-4-4-4--------|
-2-2-2-2---6-6-6-6---2-2-2-2---4-4-4-4--------|
-2-2-2-2---4-4-4-4---0-0-0-0---2-2-2-2--------|
-0-0-0-0--------------------------------------|


Verse/Intro [1:08 - 1:32]

-0-0--0-0--0-0--0-0--0-0--0-0--0-0--0-0--0-0--0-0--0-0----[repeat]--|
-5-5--4-4--5-5--4-4--9-9--7-7--5-5--7-7--5-5--4-4--5-5--------------|
--------------------------------------------------------------------|
--------------------------------------------------------------------|
--------------------------------------------------------------------|
--------------------------------------------------------------------|


Bridge [1:33 - 1:45]
[ Tab from: http://www.guitaretab.com/n/name-taken/74767.html ]
-----------------------------------------x-x-x-x-----|
-----------------------------------------x-x-x-x-----|
-6-6-6-6---2-2-2-2---6-6-6-6---2-2-2-2---x-x-x-x-----|
-6-6-6-6---2-2-2-2---6-6-6-6---2-2-2-2---x-x-x-x-----|
-4-4-4-4---0-0-0-0---4-4-4-4---0-0-0-0---x-x-x-x-----|
-----------------------------------------x-x-x-x-----|


Chorus [1:45 - 1:57]

----------------------------------------------|
----------------------------------------------|
-----------6-6-6-6---2-2-2-2---4-4-4-4--------|
-2-2-2-2---6-6-6-6---2-2-2-2---4-4-4-4--------|
-2-2-2-2---4-4-4-4---0-0-0-0---2-2-2-2--------|
-0-0-0-0--------------------------------------|


Intrelude [1:58 - 2:22]
                                     End 1&3  End 2   End 4
------------------------------------|-------|------|----------|
------------------------------------|-------|------|----------|
-2-2-2-2--2-2-2-2--6-6-6-6--4-4-4-4-|-------|-2-2b-|-4-4-4-4--|
-2-2-2-2--2-2-2-2--6-6-6-6--2-2-2-2-|-6-6-6-|-2-2b-|-2-2-2-2--|
-0-0-0-0--0-0-0-0--4-4-4-4--2-2-2-2-|-6-6-6-|-0-0--|-2-2-2-2--|
------------------------------------|-4-4-4-|------|----------|
PM:                                   - - -   -


Bridge [2:23 - 2:34]

-----------------------------------------x-x-x-x-----|
-----------------------------------------x-x-x-x-----|
-6-6-6-6---2-2-2-2---6-6-6-6---2-2-2-2---x-x-x-x-----|
-6-6-6-6---2-2-2-2---6-6-6-6---2-2-2-2---x-x-x-x-----|
-4-4-4-4---0-0-0-0---4-4-4-4---0-0-0-0---x-x-x-x-----|
-----------------------------------------x-x-x-x-----|


Chorus [2:35 - 2:47]

----------------------------------------------|
----------------------------------------------|
-----------6-6-6-6---2-2-2-2---4-4-4-4--------|
-2-2-2-2---6-6-6-6---2-2-2-2---4-4-4-4--------|
-2-2-2-2---4-4-4-4---0-0-0-0---2-2-2-2--------|
-0-0-0-0--------------------------------------|

Some of the rhythm you may need to find out yourself but it should be pretty easy. This 
a great song by a great band, so enjoy!

Rate it well! If you have any questions:
AIM: untitled318
Email: untitled318@gmail.com
UG Pro: VeloriumCamper
Related for We Give Up Sometimes tab
Advertisement will be closed in 10 seconds