Song name
# A B C D E F G H I J K L M N O P Q R S T U V W X Y Z

Nana Grizol - Cynicism tab

Capo 4

Intro + Verse
   C               F               G
E|----------0------------------------------------------------------|
B|-------------1------------1---------------0---------------0------|
G|---0---0-------0---2---2-----2-----0---0-----0-----0---0-----0---|
D|-----2---------------3---------3-----0---------0-----0---------0-|
A|-3---------------------------------------------------------------|
E|-----------------1---------------3---------------3---------------|

I once saw a sunset so vivid and warm that I swore it was perfect
I once had a lover, I'm not sure if I'll recover, but I know it was worth it
Then, last night in the car, the falling raindrops looked like stars of some incalculable speed

Chorus
   F                               C
E|------------------------------------------0---------------0------|
B|----------1---------------1------------------1---------------1---|
G|---2---2-----2-----2---2-----2-----0---0-------0---0---0-------0-|
D|-----3---------3-----3---------3-----2---------------2-----------|
A|---------------------------------3---------------3---------------|
E|-1---------------1-----------------------------------------------|

Then later, my friends said "Good to see you again, this is a home to me"
So I wrote a song and I called it "The Love of my Life"

   F                               G
E|---------------------------------------------------------0-------|
B|----------1---------------1---------------0---------------0------|
G|---2---2-----2-----2---2-----2-----0---0-----0-----0---0-----0---| 
D|-----3---------3-----3---------3-----0---------0-----0---------0-|
A|-----------------------------------------------------------------|
E|-1---------------1---------------3---------------3---------------|

Said "don't be gone long", it now sings me to sleep every night

Verse 2
   C               F               G
E|----------0------------------------------------------------------|
B|-------------1------------1---------------0---------------0------|
G|---0---0-------0---2---2-----2-----0---0-----0-----0---0-----0---|
D|-----2---------------3---------3-----0---------0-----0---------0-|
A|-3---------------------------------------------------------------|
E|-----------------1---------------3---------------3---------------|

And I never learned a lesson looking at my own reflection, but sometimes it seems useful
So I loosen my heart strings in high hopes of starting to find something truthful

Chorus
   F                               C
E|------------------------------------------0---------------0------|
B|----------1---------------1------------------1---------------1---|
G|---2---2-----2-----2---2-----2-----0---0-------0---0---0-------0-| 
D|-----3---------3-----3---------3-----2---------------2-----------|
A|---------------------------------3---------------3---------------|
E|-1---------------1-----------------------------------------------|

Cynicism isn't wisdom, it's a lazy way to say that you've been burned

   F
E|--------------------------1----|
B|----------1--------------------|
G|---2---2-----2-----2---2-----2-| 
D|-----3---------3-----3---------|
A|-------------------------------|
E|-1---------------1-------------|

It seems, if anything, you'd be less certain after everything you ever learned 

Outro
   C               F               G
E|----------0------------------------------------------------------|
B|-------------1------------1---------------0---------------0------|
G|---0---0-------0---2---2-----2-----0---0-----0-----0---0-----0---|
D|-----2---------------3---------3-----0---------0-----0---------0-|
A|-3---------------------------------------------------------------|
E|-----------------1---------------3---------------3---------------|
Tap to rate this tab
# A B C D E F G H I J K L M N O P Q R S T U V W X Y Z