Song name
# A B C D E F G H I J K L M N O P Q R S T U V W X Y Z

Nana Grizol - Atoms tab

(this is almost the whole song)
--------------|
-1--1-0-0-----|
-2--0-1-1-----|
-3--2-0-2-----|
--------------|
--------------|

then dreaming is the state that we shall keep...
----------|
1s3--1----|
2s4--0----|
3s5--2----|
----------|
----------|
I am but for hours born to last your sogging soaking future is my fogging
fading past
-8--5--9---5-----|
-5--6--10--6--1--|
-5--7--11--7--2--|
-5--7--11--7--3--|
-----------------|
-----------------|

This pretty much the basics
if you know the names of the chords or know a better way to play(although this is the 
way he plays it on this video...
http://youtu.be/euooRe6IjVE)
Please leave a comment
Tap to rate this tab
 
# A B C D E F G H I J K L M N O P Q R S T U V W X Y Z