Song name
# A B C D E F G H I J K L M N O P Q R S T U V W X Y Z

Nanci Griffith - I Wish It Would Rain tab

Temptations
I Wish It Would Rain
Tuning: Standard
Transcribed by Soch Hean

Intro: (Piano)
|-------------------------------------------------------------------------|
|----------4-3-------------------------------4-3--------------------------|
|------3-5-3-3-5p3-5--3----8--7--5--3----3-5-3-3-5p3-5--3---8--7--5--3----|
|----3---------------------8--7--5--3--3--------------------8--7--5--3----|
|-1------------------------6--5--3--1-----------------------6--5--3--1----|
|-------------------------------------------------------------------------|

-Verse- (Bass only plays)

Chorus:
|--------------------------------------|
|----------4-3-------------------------|
|------3-5-3-3-5p3-5--3----8--7--5--3--|
|----3---------------------8--7--5--3--|
|-1------------------------6--5--3--1--|
|--------------------------------------|

Verse 2: Guitar Riff
|-10-------10-------10-------10------|
|-11-------11-------11-------11------|
|------------------------------------|
|------------------------------------|
|------------------------------------|
|------------------------------------|  (x2)

|--8------8-------11-------11--------|
|-10-----10-------11-------11--------|
|------------------------------------|
|------------------------------------|
|------------------------------------|
|------------------------------------|

Chorus:
|-------------------------------1--------------|
|----------4-3--------------4---3----4---4-----|
|------3-5-3-3-5p3-5--3---3------------5-------|
|----3------------------5----------------------|
|-1--------------------------------------------|
|----------------------------------------------| (x2)

Guitar Riff during Orchestra:
|------------------------------------|
|------------------------------------|
|-3-3-3--3-3--3-3--5s7-3-------------|
|------------------------------------|
|------------------------------------|
|------------------------------------| (x3)

|------------------------------------------------|
|------------------------------------------------|
|-3-3-3-3---3--3-3--5s7--3-3-3-3---3----3-3--5s7-|
|---------3----------------------3----3----------|
|------------------------------------------------|
|------------------------------------------------| 

Orchestra Part:
|----8-10-----8-10----15-13-11--10-11-10-11-10-----|
|-11-------11--------------------------------------|
|--------------------------------------------------|
|--------------------------------------------------|
|--------------------------------------------------|
|--------------------------------------------------|

|----8-10-----8-10----15-13-11--11-15-13-11-11-10---|
|-11-------11---------------------------------------|
|---------------------------------------------------|
|---------------------------------------------------|
|---------------------------------------------------|
|---------------------------------------------------|

|----8-10-----8-10----15-13-11--10-11-10-11-10-----|
|-11-------11--------------------------------------|
|--------------------------------------------------|
|--------------------------------------------------|
|--------------------------------------------------|
|--------------------------------------------------|

|----8-10-----8-10----15-13-11--11-15-13-11-11-10---|
|-11-------11---------------------------------------|
|---------------------------------------------------|
|---------------------------------------------------|
|---------------------------------------------------|
|---------------------------------------------------|

Verse 3: Guitar Riff
|-10-------10-------10-------10------|
|-11-------11-------11-------11------|
|------------------------------------|
|------------------------------------|
|------------------------------------|
|------------------------------------|  (x2)

|-11-----11-------11-------11--------|-10-------10-------10-------10------|
|-11-----11-------11-------11--------|-11-------11-------11-------11------|
|------------------------------------|------------------------------------|
|------------------------------------|------------------------------------|
|------------------------------------|------------------------------------|
|------------------------------------|------------------------------------|

|--8------8-------11-------11--------|
|-10-----10-------11-------11--------|
|------------------------------------|
|------------------------------------|
|------------------------------------|
|------------------------------------|

Chorus:
|-------------------------------1--------------|
|----------4-3--------------4---3----4---4-----|
|------3-5-3-3-5p3-5--3---3------------5-------|
|----3------------------5----------------------|
|-1--------------------------------------------|
|----------------------------------------------|

-Fade Out-
Tap to rate this tab
 
# A B C D E F G H I J K L M N O P Q R S T U V W X Y Z