Song name
# A B C D E F G H I J K L M N O P Q R S T U V W X Y Z

Nancy Ajram - Enta Eih tab

Hi!! this is my first tab but i m sure this will sound good , i tabbed the whole 
song with whole instruments , of course u have to listen the song to get an idea 
about struming, if u have any quest or wanna get the guitar pro file just e mail 
me bel.rafik@gmail.com
Tuning : Standard 
tempo : 132

Melody1
     Q    E  Q    E  E  E  Q    E  Q    E  E  E   
E||----------------------------------------------|
B||----------------------------------------------|
G||----------------------------------------------|
D||----------------------------------------------|
A||--5----5--8----5--7--8--5----5--8----5--7--8--|
E||----------------------------------------------|


  Q    E  Q    E  E  E  Q    E  Q    E  E  E   
----------------------------------------------|
----------------------------------------------|
----------------------------------------------|
----------5-------7--5----------5-------7--5--|
--5----5-------5--------5----5-------5--------|
----------------------------------------------|


  Q    E  Q    E  E  E  Q    E  Q    E  E  E   
----------------------------------------------|
----------------------------------------------|
----------------------------------------------|
----------2-------0--2----------3-------5--3--|
--3----3-------3--------3----3-------3--------|
----------------------------------------------|


  Q    E  Q    E  E  E  Q    E  Q    E  E  E   
----------------------------------------------|
----------------------------------------------|
----------------------------------------------|
----------2-------0--2------------------------|
--3----3-------3--------0----0--3----0--1--3--|
----------------------------------------------|


  Q    E  Q    E  E  E  Q    E  E  Q    E  E   
----------------------------------------------|
----------------------------------------------|
----------------------------------------------|
----------------------------------------------|
--5----5--8-----------------------------------|
----------------------------------------------|
Guitar Chords 
Dm_1 Am Gm C  A# Dm_2 A  
5    5  3  3  1   1   0
6    5  3  5  3   3   2
7    5  3  5  3   2   2
7    7  5  5  3   0   2
5    7  5  3  1   x   0
x    5  3  x  x   x   x
verse 
[Dm_1 Gm C Am Dm_2 A# C] X 4
Chorus : 
[Dm_1 C  A# A ] X 2 Dm_2
Solo :
solo background : Chorus 
solo guitar (overdriven ) 
 W                 Q    E   E     Q        E   E   
----------------------------------------------------|
----------------------------------------------------|
--12b----------------L----L--12pb--12pbr----10--10--|
----------------------------------------------------|
----------------------------------------------------|
----------------------------------------------------|


   E   E   W                Q    E   E   E   E   
------------------------------------------------|
------------------------------------------------|
--10--12--12------------------------/9--10--12--|
------------------------------------------------|
------------------------------------------------|
------------------------------------------------|


   E  E  E  H        Q    E  E   E  S   S  S Q    S  
----------------------------------------------------|
----------------------------------------------------|
--10--9-----7----------------9--10--9h-10p-9-7------|
----------------------------------------------------|
----------------------------------------------------|
----------------------------------------------------|


  H        Q     Q     H        Q     S  
----------------------------------------|
-------------------------------------10-|
--9-------------10----12----------------|
----------------------------------------|
----------------------------------------|
----------------------------------------|


    E   E  E   W                Q     E   E   E     
--/10--13-----13---------------------13--15--15br--|
---------------------------------------------------|
---------------------------------------------------|
---------------------------------------------------|
---------------------------------------------------|
---------------------------------------------------|


   E   E   H        E   E   E   H        E  S S  S   S  
-------------------------------------------------------|
---L--18--17-----------18--20--20---------------17h-18-|
-------------------------------------------------------|
-------------------------------------------------------|
-------------------------------------------------------|
-------------------------------------------------------|


   S  E   H        E   E   Q     Q     Q     Q     
--------------------------------------------------|
--20-17--18-----------15--15----17----18----18----|
--------------------------------------------------|
--------------------------------------------------|
--------------------------------------------------|
--------------------------------------------------|


   H         Q     E   E   E   E   E   E   H            W                  
----------------------------------------------------|--------------------||
--17--------17----17--17--17--17--17--17--17--------|--15----------------||
----------------------------------------------------|--------------------||
----------------------------------------------------|--------------------||
----------------------------------------------------|--------------------||
----------------------------------------------------|--------------------||




Duration Legend
---------------
W - whole
H - half
Q - quarter
E - 8th
S - 16th
T - 32nd
X - 64th
. - note dotted
|-n-|  - n-tuplets


Tablature Legend
----------------
L - tied note
x - dead note
g - grace note
(n) - ghost note
> - accentuded note
NH - natural harmonic
AH - artificial harmonic
TH - tapped harmonic
SH - semi harmonic
PH - pitch harmonic
h - hammer on
p - pull off
b - bend
br - bendRelease
pb - preBend
pbr - preBendRelease
brb - bendReleaseBend
\n/ - tremolo bar dip
\n - tremolo bar dive
-/n - tremolo bar Release up
/n\ - tremolo bar inverted dip
/n - tremolo bar return
-\n - tremolo bar Release down
S - shift slide
s - legato slide
/ -  slide into from below or out of upwards
\ -  slide into from above or out of downwards
~ - vibrato
W - wide vibrato
tr - trill
TP - tremolo picking
T - tapping
S - slap
P - pop
< - fade in
^ - brush up
v - brush down


http://www.nancyajramonline.com/en/
Tap to rate this tab
 
# A B C D E F G H I J K L M N O P Q R S T U V W X Y Z