Guitaretab - guitar tabs
Song name
# A B C D E F G H I J K L M N O P Q R S T U V W X Y Z

Nancy Sinatra & Lee Hazlewood - Summer Wine tab

This is an update of the previous tab I submitted. This update includes the vocal line arranged for guitar.

Nancy Sinatra & Lee Hazlewood "Summer wine" from the 1968 LP "Nancy & Lee"


Female: 
Am		  G
Strawberries, cherries and an angel's kiss in spring.
Am		  G
My summer wine is really made from all these things.

Male:
Am		  G
I walked in town on silver spurs that jingled to.
Am		  G
A song that I had only sang to just a few.
Dm		   Am
She saw my silver spurs and said let's pass some time.
Dm	               Am
And I will give to you summer wine.
Dm		Am
Ohh-oh-oh summer wine.

Female: 
Am		  G
Strawberries, cherries and an angel's kiss in spring.
Am		  G
My summer wine is really made from all these things.
Dm		   Am
Take off your silver spurs and and help me pass the time.
Dm		   Am
And I will give to you summer wine.
Dm		Am
Ohh-oh-oh summer wine.

Male:
Am		  G
My eyes grew heavy and my lips they could not speak.
Am		  G
I tried to get up but I couldn't find my feet.
Dm		Am
She reassured me with an unfamiliar line.
Dm		Am
And then she gave to me more summer wine.
Dm		Am
Ohh-oh-oh summer wine.

Female: 
Am		  G
Strawberries, cherries and an angel's kiss in spring.
Am		  G
My summer wine is really made from all these things.
Dm		   Am
Take off your silver spurs and and help me pass the time.
Dm		   Am
And I will give to you summer wine.
Dm		Am
Mmm-mm summer wine.

Male:
Am		  G
When I woke up the sun was shining in my eyes.
Am		  G
My silver spurs were gone, my head felt twice its size.
Dm		   Am
She took my silver spurs, a dollar and a dime.
Dm		   Am
And left me cravin' for more summer wine.
Dm		   Am
Ohh-oh-oh summer wine.

Female: 
Am		  G
Strawberries, cherries and an angel's kiss in spring.
Am		  G
My summer wine is really made from all these things.
Dm		   Am
Take off your silver spurs and and help me pass the time.
Dm		   Am
And I will give to you summer wine.
Dm		Am
Mmm-mm summer wine.





This is the vocal line arranged for guitar:

 
|--------------------------------------|-------------------------------------|
|--------------------------------------|-------------------------------------|
|--------------------------------------|-------------------------------------|
|------------2--0-----0---0-0--0--0----|-------------2--0-----5---5-5--5--5--|
|0--0--2--3--------3-------------------|-0--0--2--3--------3-----------------|
|--------------------------------------|-------------------------------------|


|--------------------------------------|-------------------------------|
|--------------------------------------|-------------------------------|
|--------------------------------------|-------------------------------|
|3--3--5--7--5--3-(0)-2---2-2--2--2----|-0--0--2--3--2--0--------------|
|--------------------------------------|----------------------0---0-0-0|
|--------------------------------------|-------------------------------|

|-----------------------------|
|-----------------------------|
|-----------------------------|
|-----------------------------|
|-5--------2--------2-----0---|
|-------------3--------3------|

I'd like to point out that Virgil Warner & Suzi Jane Hokom did a fantastic version 
of this song, even better than the original in my opinion, along side an equally 
fantastic version of "Lady Bird"!

[ Tab from: http://www.guitaretab.com/n/nancy-sinatra-lee-hazlewood/24908.html ]