Song name
# A B C D E F G H I J K L M N O P Q R S T U V W X Y Z

Nancy Wilson - River Road tab

Help us improve GuitareTab! Take a short survey!
-------------------------------------------------------------------------
			     River Road - Nancy Wilson
-------------------------------------------------------------------------------
Tabbed by: ElliottA
Email: elliottandrews@hotmail.com

Tuning: Standard

Each Chord representing a beat
  
Guitar 1 - Chords - 0:00
     G       C   D         G       C   D      G        C   C
e|---3---3---0---2---------3---3---0---2------3---3----0---0-----------|
B|---3---3---1---3---------3---3---1---3------3---3--0h1---1-----------|
G|---0---0---0---2---x2----0---0---0---2------0---0----0---0-----------|
D|---0---0---2---0---------0---0---2---0------0---0----2---2-----------|
A|---2---2---3-------------2---2---3----------2---2--0h3---3-----------|
E|---3---3-----------------3---3--------------3---3--------------------|

Guitar 2 - Lead
e|-------------------------7-------8---5--------------------------------|
B|-------------------------8-------10--7--------------------------------|
G|-------------------------0--------------------------------------------|
D|----------------------------------------------------------------------|
A|----------------------------------------------------------------------|
E|----------------------------------------------------------------------|

Guitar 1 - Chords - 0:15
        G            D             C            
e|------3----3-------2----2--------0---0----0----0----0----0----0----0--|
B|------3----3-------3----3--------1---1----1----1----1----1----1----1--|
G|------0----0-------2----2--------0---0----0----0----0----0----0----0--|
D|------0----0-------0----0--------2---2----2----2----2----2----2----2--|
A|------2----2-----------------0h2-3---3----3----3----3----3----3----3--|
E|------3----3----------------------------------------------------------|

Guitar 2 - Lead
e|------3----3-5-7---5-------5h7-8-7-5-3--0-----------------------------|
B|--3-------------------------------------1-----------------------------|
G|----------------------------------------------------------------------|
D|----------------------------------------------------------------------|
A|----------------------------------------------------------------------|
E|----------------------------------------------------------------------|

Guitar 1 - Chords - Again
        G            D             C            
e|------3----3-------2----2--------0---0----0----0----0----0----0----0--|
B|------3----3-------3----3--------1---1----1----1----1----1----1----1--|
G|------0----0-------2----2--------0---0----0----0----0----0----0----0--|
D|------0----0-------0----0--------2---2----2----2----2----2----2----2--|
A|------2----2-----------------0h2-3---3----3----3----3----3----3----3--|
E|------3----3----------------------------------------------------------|

Guitar 2 - Lead
e|------3----3-5-7---5---------5h7-8-7-5-3------------------------------|
B|--3---------------------------------------3h5-------------------------|
G|----------------------------------------------------------------------|
D|----------------------------------------------------------------------|
A|----------------------------------------------------------------------|
E|----------------------------------------------------------------------|

Guitar 1 - Chords - Again
         Em           D             C            
e|-------0----0-------2----2--------0---0----0----0----0----0----0----0--|
B|-------0----0-------3----3--------1---1----1----1----1----1----1----1--|
G|-------0----0-------2----2--------0---0----0----0----0----0----0----0--|
D|-------2----2-------0----0--------2---2----2----2----2----2----2----2--|
A|-------2----2-----------------0h2-3---3----3----3----3----3----3----3--|
E|-------0----0----------------------------------------------------------|

Guitar 2 - Lead
e|-5-----3----3-5-7---5---------5h7-8-7-5-3--3---------------------------|
B|---3h5-----------------------------------------------------------------|
G|-----------------------------------------------------------------------|
D|-----------------------------------------------------------------------|
A|-----------------------------------------------------------------------|
E|-----------------------------------------------------------------------|

Guitar 1 - Chords - 0:48
         Am   G    F    Em                        
e|-------0----3----3----0------|   
B|-------1----3----1----0------|
G|-------2----0----2----0------|   
D|-------2----0----3----2------|
A|-------0----2---------2------|
E|------------3---------0------|

Guitar 2 - Lead
e|-5h7--8-----7----7-5--5------|
B|-----------------------------|
G|-----------------------------|
D|-----------------------------|
A|-----------------------------|
E|-----------------------------|

Guitar 1 - Chords 
          Am      G     F     C     At end of Bar                  
e|--------0-------3-----3-----0------------------|   
B|--------1-------3-----1-----1------------------|
G|--------2-------0-----2-----0---------0h2p0----|   
D|--------2-------0-----3---0h2-----0h2--------0-|
A|--------0-------2---------0h3------------------|
E|----------------3------------------------------|

Guitar 2 - Lead
e|-3-5-7--7h8-12-----12--------------|
B|----------------12----10-8--3h5----|
G|-----------------------------------|
D|-----------------------------------|
A|-----------------------------------|
E|-----------------------------------|

Guitar 1 - Chords - Again - 1:05
         Em           D             C            
e|-------0----0-------2----2--------0---0----0----0----0----0----0----0--|
B|-------0----0-------3----3--------1---1----1----1----1----1----1----1--|
G|-------0----0-------2----2--------0---0----0----0----0----0----0----0--|
D|-------2----2-------0----0--------2---2----2----2----2----2----2----2--|
A|-------2----2-----------------0h2-3---3----3----3--2h3----3----3----3--|
E|-------0----0----------------------------------------------------------|

Guitar 2 - Lead
e|-5-----3----3-5-7---5---------5h7-8-7-5-3--3---------------------------|
B|---3h5----------------------------------------------------------------|
G|-----------------------------------------------------------------------|
D|-----------------------------------------------------------------------|
A|-----------------------------------------------------------------------|
E|-----------------------------------------------------------------------|

Guitar 1 - Chords - 1:16
     G       C   D         
e|---3---3---0---2---------|
B|---3---3---1---3---------|
G|---0---0---0---2---x4----|
D|---0---0---2---0---------|
A|---2---2---3-------------|
E|---3---3-----------------|

Guitar 2 - Lead
e|---15--------------------|
B|-------------------------|
G|-------------------------|
D|-------------------------|
A|-------------------------|
E|-------------------------|


Guitar 1 - Chords - 1:31
        G            D             C            
e|------3----3-------2----2------------0----0----0----0----0----0----0----|
B|------3----3-------3----3------------1----1----1----1----1----1----1----|
G|------0----0-------2----2------------0----0----0----0----0----0----0----|
D|------0----0-------0----0------------2----2----2----2----2----2----2----|
A|------2----2-----------------0h2-3---3----3----3--2h3----3----3----3----|
E|------3----3------------------------------------------------------------|

Guitar 2 - Lead
e|------3----3-5-7---5--------------------------------------3h5-5p3------|
B|--3--------------------------------------------------------------------|
G|-----------------------------------------------------------------------|
D|-----------------------------------------------------------------------|
A|-----------------------------------------------------------------------|
E|-----------------------------------------------------------------------|

Guitar 1 - Chords 
        G            D             C            
e|------3----3-------2----2--------0---0----0----0----0----0----0----0----|
B|------3----3-------3----3--------1---1----1----1----1----1----1----1----|
G|------0----0-------2----2--------0---0----0----0----0----0----0----0----|
D|------0----0-------0----0--------2---2----2----2----2----2----2----2----|
A|------2----2-----------------0h2-3---3----3----3--2h3----3----3----3----|
E|------3----3------------------------------------------------------------|


Guitar 2 - Lead
e|------3----3-5-7---5---------5h7-8-7-5-3--3-----------------------------|
B|--3--------------------------------------------------------------------|
G|------------------------------------------------------------------------|
D|------------------------------------------------------------------------|
A|------------------------------------------------------------------------|
E|------------------------------------------------------------------------|

Guitar 1 - Chords - 1:53
         Am   G    F    Em                        
e|-------0----3----3----0------|   
B|-------1----3----1----0------|
G|-------2----0----2----0------|   
D|-------2----0----3----2------|
A|-------0----2---------2------|
E|------------3---------0------|

Guitar 2 - Lead
e|-5h7--8-----7----5----3------|
B|-----------------------------|
G|-----------------------------|
D|-----------------------------|
A|-----------------------------|
E|-----------------------------|

Guitar 1 - Chords 
      Am   G      F        C     At end of Bar                  
e|----0----3------3--------0------------------|   
B|----1----3------1--------1------------------|
G|----2----0------2--------0---------0h2p0----|   
D|----2----0------3------0h2-----0h2--------0-|
A|----0----2-------------0h3------------------|
E|---------3----------------------------------|

Guitar 2 - Lead
e|----8----7h8p7--5h7p5--0h3-----3p0---------|
B|-----------------------------------3-------|
G|-------------------------------------------|
D|-------------------------------------------|
A|-------------------------------------------|
E|-------------------------------------------|

Guitar 1 - Chords - 2:10
     G          C   D         G            C      D      
e|---3---3------0---2---------3-----3------0------2------|
B|---3---3------1---3---------3-----3------1------3------|
G|---0---0------0---2---x2----0-----0------0------2------|
D|---0---0------2---0---------0-----0------2------0------|
A|---2---2------3-------------2-----2------3-------------|
E|---3---3--------------------3-----3--------------------|

Guitar 2 - Lead
e|-0h3---3h5-7--5-------------3------3------3------3------|
B|------------------------------3h5-----3h5---3h5--------|
G|-------------------------------------------------------|
D|-------------------------------------------------------|
A|-------------------------------------------------------|
E|-------------------------------------------------------|


Guitar 1 - Chords 
     G           C     D         G            C      D      
e|---3----3------0-----2---------3-----3------0------2------|
B|---3----3------1-----3---------3-----3------1------3------|
G|---0----0------0-----2---x2----0-----0------0------2------|
D|---0----0------2-----0---------0-----0------2------0------|
A|---2----2------3---------------2-----2------3-------------|
E|---3----3----------------------3-----3--------------------|

Guitar 2 - Lead
e|--------3-----3------3-------|
B|----3h5----3h3---3h5---------|
G|-----------------------------|
D|-----------------------------|
A|-----------------------------|
E|-----------------------------|


Guitar 1 
     G          
e|---3----|
B|---3----|
G|---0----|
D|---0----|
A|---2----|
E|---3----|


| h  hammer-on
| p  pull-off

Related for River Road tab