Song name
# A B C D E F G H I J K L M N O P Q R S T U V W X Y Z

Nancy Wilson - Elevator Beat tab

Tabbed by Matt Bowden
Fingerpicking style
Standard Tune

e-|---------------|
B-|--5------------|
G-|------0--------|
D-|----3----------|
A-|---------------|
E-|---------1--1-1| X2

e-|------------------------------------|
B-|---------------------------------5--|
G-|----5----7/8/9---9-7-5-2---5--7-----|
D-|------------------------------------|
A-|------------------------------------|
E-|-5--5-------------------------------|

e-|-----------|
B-|--5--------|
G-|------0----|
D-|----3------|
A-|-----------|
E-|---------1-| X2

e-|--------------------------------------|
B-|-----------------------------------5--|
G-|----5----7--/8/9---9-7-5-2---5--7-----|
D-|--------------------------------------|
A-|--------------------------------------|
E-|-5--5---------------------------------|

e-|----3--------3-----------3-------3------|
B-|--1---1--------1-------1---1-------1----|
G-|----------2--------0----------2---------|
D-|----------3--------2----------3-------5-|
A-|----------3--------3----------3-------5-|
E-|----------1-------------------1-------3-|

e-|----3--------3-----------3--------------------------|
B-|--1---0--------1-------1---0-----------------5-6----|
G-|----------2--------0----------2----2/4-5-7--------0-|
D-|----------3--------2----------3-------------------0-|
A-|----------3--------3----------3-------------------2-|
E-|----------1-------------------1-------------------3-|

e-|-----------|
B-|--5--------|
G-|------0----|
D-|----3------|
A-|-----------|
E-|---------1-| X2

e-|--------------------------------------|
B-|-----------------------------------5--|
G-|----5----7--/8/9---9-7-52---5--7------|
D-|--------------------------------------|
A-|--------------------------------------|
E-|-5--5---------------------------------|

e-|-----------|
B-|--5--------|
G-|------0----|
D-|----3------|
A-|-----------|
E-|---------1-| X2

e-|--------------------------------------|
B-|-----------------------------------5--|
G-|----5----7--/8/9---9-7-52---5--7------|
D-|--------------------------------------|
A-|--------------------------------------|
E-|-5--5---------------------------------|

e-|----3--------3-----------0-------3------|
B-|--1---1--------1-------5---5-------1----|
G-|----------2--------0----------2---------|
D-|----------3--------2----------3-------5-|
A-|----------3--------3----------3-------5-|
E-|----------1-------------------1-------3-|

e-|----3--------3-----------3--------------------------|
B-|--1---0--------1-------1---0-----------------5-6----|
G-|----------2--------0----------2----2-/4-5-7-------0-|
D-|----------3--------2----------3-------------------0-|
A-|----------3--------3----------3-------------------2-|
E-|----------1-------------------1-------------------3-|

e-|-----------|
B-|--5--------|
G-|------0----|
D-|----3------|
A-|-----------|
E-|---------1-| X2

e-|-----------|
B-|--5--------|
G-|--------5--|
D-|----3------|
A-|-----------|
E-|-----------|

e-|------------------------------|
B-|--5---------------------------|
G-|------0--------0--4-5-4-0-----|
D-|----3--------3--------------3-|
A-|------------------------------|
E-|---------1--------------------|

End
Tap to rate this tab
 
# A B C D E F G H I J K L M N O P Q R S T U V W X Y Z