Nancy Wilson - Elevator Beat tab

ELEVATOR BEAT - Nancy Wilson
Tabbed by Ben Schreiber
tschreiber4@wi.rr.com

Fun song from a great movie
Tune low E up a half step to F and let chords ring out. It's fingerpicking so listen to 
for counts, rhythm, and what notes to ring out

MAIN RIFF
e--0---------------0-------------------------------------0-|
B------------------------------------1--3-4-5-3-1---1--3---|
G------0---------------0-----------0-0------------2-0------|
D----3---3---3-3-----3---3---3-3-----2--------------2------|
A--------3---3-3---------3---3-3-----0--------------0------|
F--------0---0-0---------0---0-0---------------------------|

2ND PART
e----3------------3--------------3-------------3-----------|
B--1---1-1---1-1--1-1----------1---1-----------1-1---------|
G--------2---2-2-------------------------------------------|
D--------0---0-0------2---2-2------------------------------|
A---------------------0---0-0--------3---3-3-------2---2-2-|
F------------------------------------0---0-0-------2---2-2-|

e----3------------3--------------3---------------0-1---|
B--1---1-1---1-1--1-1----------1---1---------1-3-------|
G--------2---2-2-------------------------0-2-----------|
D--------0---0-0------2---2-2--------------------------|
A---------------------0---0-0--------3---------------2-|
F------------------------------------0---------------2-|

BACK TO MAIN RIFF


THEN 2ND RIFF WITH VARIATION     v
e----3------------3--------------0-------------3------------|
B--1---1-1---1-1--1-1----------1---1-----------1-1----------|
G--------2---2-2--------------------------------------------|
D--------0---0-0------2---2-2-------------------------------|
A---------------------0---0-0--------3---3-3-------2---2-2--|
F------------------------------------0---0-0-------2---2-2--|

e----3------------3--------------3---------------0-1---|
B--1---1-1---1-1--1-1----------1---1---------1-3-------|
G--------2---2-2-------------------------0-2-----------|
D--------0---0-0------2---2-2--------------------------|
A---------------------0---0-0--------3---------------2-|
F------------------------------------0---------------2-|

THEN MAIN RIFF                   |  new   |
e--0---------------0--------------0----------------------|
B---------------------------------------1----------------|
G------0---------------0----------------0----------------|
D----3---3---3-3-----3---3---3-3-----3--2----------------|
A--------3---3-3---------3---3-3--------3----------------|
F--------0---0-0---------0---0-0-------------------------|

LAST ARPEGGIO
e----------------------------0~------------------------------0-------|
B--------0-1-0-----------0-1-------------0-1-0-----------0-1-----1-1-|
G------0-------0-------0---------------0-------0-------0-------0---0-|
D----3-----------3---3---------------3-----------3---3-------------2-|
A------------------------------------------------------------------3-|
F--0---------------0---------------0---------------0-----------------|

END
Tap to rate this tab
 
# A B C D E F G H I J K L M N O P Q R S T U V W X Y Z