Song name
# A B C D E F G H I J K L M N O P Q R S T U V W X Y Z

Nando Reis - Por Onde Andei tab

Tom: C
                
Intro:


    C            G
E|------------------------------------------|
B|------------------------------------------|
G|------0-----------------------------------|
D|--0h2---2------2------------------0-------|
A|3----------3-3---3-3-3--2-----0h2---2-----|
E|---------------------------3--------------|



  G           Dm                     F
E|------------------------------------------|
B|------------------------------------------|
G|-------------------0--------0-------------|
D|----0---------0--3---3--0-0---0--------3--|
A|------2-0-0-3--------------------0-3-3----|
E|3-3---------------------------------------|




E|------------------------------------------|
B|------------------------------------------|
G|----0-------------------------------------|
D|--------------3---3-----------------------|
A|3-3---3-3-3-3---3-------------------------|
E|------------------------------------------|



  C                         G
E|------------------------------------------|
B|------------------------------------------|
G|------0-----------------------------------|
D|--0h2---2------2------------------0-------|
A|3----------3-3---3-3-3--2-----0h2---2-----|
E|---------------------------3--------------|



     Dm                             F/C C4
E|------------------------------------------|
B|-----------------------------------1--1---|
G|-------------------0--------0------2--0---|
D|----0---------0--3---3--0-0---0----3--3---|
A|------2-0-0-3--------------------0-3--3---|
E|3-3---------------------------------------|


            C
Desculpe estou um pouco atrasado
       G
Mas espero que ainda de tempo
      Dm                          F
De dizer que andei errado e eu entendo
           C
As suas queixas tão justificáveis
            G
E a falta que eu fiz nessa semana
 Dm                            F
Coisas que pareceriam óbvias até pra uma Criança

Refrão:
    C
Por onde andei
            G
Enquanto você me procurava
   Bb5(9)                 F
Será que eu sei que você mesmo é tudo
                  C    G Dm F
Aquilo que me faltava?

  C
Amor eu sinto a sua falta
             G
E a falta é morte da esperança
        Dm
Como o dia em que roubaram o seu carro
    F
Deixou uma lembrança
              C
Que a vida é mesmo coisa muito frágil
       G
Uma bobagem uma irrelevância
  Dm                      F
Diante da eternidade do amor, de quem se Ama

Refrão:
    C
Por onde andei
            G
Enquanto você me procurava
      Bb5(9)                  F
E o que eu te dei, foi muito pouco ou Quase nada
    C                     G
E que eu deixei, algumas roupas penduradas


   Bb5(9)                   F
Será que eu sei que você é mesmo tudo
                  C    G Dm F
Aquilo que me faltava?
Tap to rate this tab
# A B C D E F G H I J K L M N O P Q R S T U V W X Y Z