Song name
# A B C D E F G H I J K L M N O P Q R S T U V W X Y Z

Nano Ripe - Sora No Shounen tab

e|--12--10--9----------------------------------------------------|
B|------------------------------------------------5b--5--5/3-----|
G|-------------14--12--11--12--11h12--------------------------4--|
D|------------------------------------12--14--12-----------------|
A|---------------------------------------------------------------|
E|---------------------------------------------------------------|

e|---------------------------------------------------------------|
B|-3--3/5--3--2--3--2h3--2---------------------------------------|
G|-------------------------2---------------7--7h9--7--11h12--11--|
D|---------------------------------7--7h9------------------------|
A|----------------------------7h9--------------------------------|
E|---------------------------------------------------------------|

e|---------------------------------------------------------------|
B|---------------------------------------------------------------|
G|-----11--11--12--13--14----------------------------------------|
D|-12----------------------12--12/14--12--11--12--11h12--11------|
A|-----------------------------------------------------------12--|
E|---------------------------------------------------------------|

e|---------------------------------------------------------------|
B|---------------------------------------------------------------|
G|----------------------------11--------------------12-----------|
D|--12p11------14--12p11----------12p11------12p11------12p11----|
A|---------12-------------12-------------12--------------------12|
E|---------------------------------------------------------------|

e|-------------------------------------10--12--10--9--10--9h10--9|
B|---------------------------------------------------------------|
G|--14-------------11--11--12--12--14----------------------------|
D|------12p11----------------------------------------------------|
A|-------------12------------------------------------------------|
E|---------------------------------------------------------------|

e|---------------------------------------------------------17--15|
B|--10---------15------17--15------20--19--17--15--14------------|
G|------13h14------14----------18----------------------14--------|
D|---------------------------------------------------------------|
A|---------------------------------------------------------------|
E|---------------------------------------------------------------|

e|--14-----------------------------------------------------------|
B|------17--15--14-----------------------------------------------|
G|------------------16-------------------------------------------|
D|---------------------------------------------------------------|
A|---------------------------------------------------------------|
E|---------------------------------------------------------------|


| /  slide up
| \  slide down
| h  hammer-on
| p  pull-off
| ~  vibrato
| +  harmonic
| x  Mute note
| b  Bend
Tap to rate this tab
# A B C D E F G H I J K L M N O P Q R S T U V W X Y Z