Song name
# A B C D E F G H I J K L M N O P Q R S T U V W X Y Z

Nano Ripe - Esoragoto tab

Title: Esoragoto
SubTitle: Sankarea OP
Artist: Nano.Ripe
Tabber: Billy S.
Notes: -- 
Tempo = 85
Solo

Legend
h - hammer on/pull off
b - bend
/ - slide
~ - vibrato
() - ghost note




                             ...nai darou~~
                                
----------------------------------------------------|
----------------------------------------------------|
----------------------------------------------------|
--------------------------------------/7~~~~~~~~~~--|
----------------------------------------------------|
----------------------------------------------------|


----------------------------|----------------------------|
-----------------15-14------|----------------------------|
-/14~------------------14~--|-----------------12-11-12---|
----------------------------|----------------------------|
----------------------------|----------------------------|
----------------------------|----------------------------|


----------------------------------------------------|
----------------------------------------------------|
--11------------------------------------------------|
--------14----12----------12/14-12---------/9-------|
----------------------------------------------------|
----------------------------------------------------|


----------------------------------------------------|
--------------------------------/14---15h17~-~------|
--------------12------------------------------------|
-------------(9)------------------------------------|
----------------------------------------------------|
----------------------------------------------------|


----------------------/15---|-----14---------------------|
--15----17-15-14------------|--------17-15-14-15-14------|
-----14----------14---------|-----------------------14---|
----------------------------|----------------------------|
----------------------------|----------------------------|
----------------------------|----------------------------|


--------17-------17----15~--|
--14h15----14h15-------15~--|
----------------------------|
----------------------------|
----------------------------|
----------------------------|


--(15)------------------------------17---------17---|
--(15)------------------------/15------15-----------|
----------------------------------------------------|
----------------------------------------------------|
----------------------------------------------------|
----------------------------------------------------|


--------15-------15-------14-------14---------------|
--15-------15-------15-------15-------17h15---------|
--------------------------------------------14------|
----------------------------------------------------|
----------------------------------------------------|
----------------------------------------------------|

Tap to rate this tab
# A B C D E F G H I J K L M N O P Q R S T U V W X Y Z