Song name
# A B C D E F G H I J K L M N O P Q R S T U V W X Y Z

Nanowar - Gioca Tru tab

GIOCA TRUE’ (OTHER BANDS PLAY, NANOWAR GAY!) By Nanowar

This is a fantastic song by the True Metal of Steel Nanowar! Enjoy!

GUITAR 1 (bere birra, quattro quarti, rob halford, sputare)
E|-----------------------------------------------------------|
B|-----------------------------------------------------------|
G|-----------------------------------------------------------|
D|-----------------------------------7-7---------------------|
A|-----22-22-22-22-22-22-22-22-22-22-5-4---------------------|
E|-/---00-00-00-00-00-00-00-00-00-00-------------------------|
GUITAR 2
E|-----12-12-12----------------------------------------------------------------|
B|-------------14-12-14—14—14-12---12-12-12------------------------------------|
G|------------------------------14---------14-12-14-14-14-12-------------------|
D|------------------------------------------------------------14---------------|
A|-----------------------------------------------------------------------------|
E|-----------------------------------------------------------------------------|
GUITAR 1 (pogare, scapocciare, andare in moto, cantare la canzone dei Manowar!)
E|-----------------------------------------------------------|
B|-----------------------------------------------------------|
G|-----------------------------------------------------------|
D|--5-----------------------------3--------------------------|
A|--5-----------------------------3--------------------------|
E|--3-----------------------------1--------------------------|
GUITAR 2
E|-----------------------------------------------------------|
B|-----------------------------------------------------------|
G|-------12-14(16)—14(16)—14(16)-16(14)-12-14--12------------|
D|--12-14----------------------------------------------------|
A|-----------------------------------------------------------|
E|-----------------------------------------------------------|
GUITAR 1
E|-----------------------------------------------------------|
B|-----------------------------------------------------------|
G|-----------------------------------------------------------|
D|--5-----------------------------3-2-3-2--------------------|
A|--5-----------------------------3-3-3-3--------------------|
E|--3-----------------------------1-0-1-0--------------------|
GUITAR 2
E|-----------------------------------------------------------|
B|-----------------------------------------------------------|
G|-------12-14(16)—14(16)—14(16)-16(14)-12-12----------------|
D|--12-14----------------------------------------------------|
A|-----------------------------------------------------------|
E|-----------------------------------------------------------|

And Then there is the beginning of Hail and Kill by Manowar

VISIT THE OFFICIAL SITE: WWW.NANOWAR.IT
Tap to rate this tab
 
# A B C D E F G H I J K L M N O P Q R S T U V W X Y Z