Song name
# A B C D E F G H I J K L M N O P Q R S T U V W X Y Z

Naoto Ishida - Mute Ciry tab

Mute City
F-Zero
Composed by Yumiko Kanki
Tabbed by Richard Schaefer (richard@gametabs.net)
4/13/07

e---------------------------------------------|
B---------------------------------------------|
G--10------------------------10---------------|
D-------13---12-10---12---13------13---12-10--|
A---------------------------------------------|
E---------------------------------------------|

e-------------------------------------------------------------------|
B------------------------11-----------------------------------------|
G-----------10h12---10------13---12---10-12---10--------------------|
D--10h12h13----------------------------------------13-12---10-------|
A---------------------------------------------------------------13--|
E-------------------------------------------------------------------|

Repeat from beginning then

e------------------------------------------------------------------|
B------------------------------------------------------------------|
G--------------------------------------------------------------10--|
D-----------------10-------------12----------12-13-------12-13-----|
A--12----10-12-13-------10-12-13-------12-13----------13-----------|
E------------------------------------------------------------------|

e--------------------------------------------------------------------------------|
B------------------------------6--------6-7-6------------------------------------|
G-------------------6--------6--------6-------8-6---6-------------------------8--|
D-----------------6--------6--------6-------------9---8-6-------------------8----|
A----4-6-8----6-8--------8--------------------------------9-8-6---6-8-9-6-8------|
E--4------------------------------------------------------------9----------------|

Rinse, Lather, Repeat
Tap to rate this tab
 
# A B C D E F G H I J K L M N O P Q R S T U V W X Y Z