Song name
# A B C D E F G H I J K L M N O P Q R S T U V W X Y Z

Napalm Death - When All Is Said And Done tab

Artist: Napalm Death
Song: When All Is Said and Done
Album: Smear Campaign
Tuning: CGCFAD
The original tuning of this song is DGCFAD, but since I play in drop tuning I wrote it as CGCFAD.

Riff 1A
e|------------------------------------------------------------------------|
B|------------------------------------------------------------------------|
G|------------------------------------------------------------------------|
D|------------------------------------------------------------------------| 
A|3-3-3-3-5-5-5-5-6-6-6-6-6-6-6-6---6-6-6-6-8-8-8-8-9-9-9-9-9-9-9-9-------|
E|3-3-3-3-5-5-5-5-6-6-6-6-6-6-6-6---6-6-6-6-8-8-8-8-9-9-9-9-9-9-9-9-------|
Riff 1B
e|------------------------------------------------------------------------|
B|------------------------------------------------------------------------|
G|------------------------------------------------------------------------|
D|------------------------------------------------------------------------| 
A|3-3-3-3-5-5-5-5-6-6-6-6-6-6-6-6---6-6-6-6-8-8-8-8-9-9-9-9-9-9-9-9-------|
E|3-3-3-3-5-5-5-5-6-6-6-6-6-6-6-6---6-6-6-6-8-8-8-8-9-9-9-9-9-9-9-9-------|
Riff1C
e|-------------------------------------------------------------------------|
B|-------------------------------------------------------------------------|
G|-------------------------------------------------------------------------|
D|-------------------------------------------------------------------------|
A|9-9-9-9-11-11-11-11-12-12-12-12-12-12-12-12------12-12-12-12-14-14-14-14-|
E|9-9-9-9-11-11-11-11-12-12-12-12-12-12-12-12------12-12-12-12-14-14-14-14-|
Riff 1D
e|--------------------|
B|--------------------|
G|--------------------|
D|10-10-----10-10-----|
A|8--8--9-9-8--8--9-9-|
E|------9-9-------9-9-|
Riff 1E
e|-------------------------------------------------------------------------|
B|-------------------------------------------------------------------------|
G|-------------------------------------------------------------------------|
D|-------------------------------------------------------------------------|
A|9-9-9-9-11-11-11-11-12-12-12-12-12-12-12-12------12-12-12-12-14-14-14-14-|
E|9-9-9-9-11-11-11-11-12-12-12-12-12-12-12-12------12-12-12-12-14-14-14-14-|
Riff 1F
e|-------------------------------------------------------------------------|
B|-------------------------------------------------------------------------|
G|-------------------------------------------------------------------------|
D|10-10-----10-10-----------------------------9999-------------------------|
A|8--8--9-9-8--8--9-9-9-9-88888888888888888888----8888---------------------|
E|------9-9-------9-9-9-9--------------------------------------------------|


Riff 2
e|----------------------|
B|----------------------|
G|----------------------|
D|10--------------------|
A|8--9--3-3-5-3-5-3-3-3-|
E|---9--3-3-5-3-5-3-3-3-|
        . . . . . . . .

Riff 3
e|----------|
B|----------|
G|----------|
D|----------|
A|5-5-5-5-5-|
E|5-5-5-5-5-|
  . . . . .

Riff 4
e|-----------------|
B|-----------------|
G|-----------------|
D|--------55555555-|
A|3-5-6-5----------|
E|3-5-6-5----------|
  . . . .

Riff 5
e|-----------------|
B|-----------------|
G|-----------------|
D|--------77777777-|
A|5-7-8-7----------|
E|5-7-8-7----------|


Riff 6
e|----------------------------------|
B|----------------------------------|
G|----------------------------------|
D|5-7--8-5-7--7-5-7--5-8-7--8-8-8-8-|
A|5-7--8-5-7--7-5-7--5-8-7--8-8-8-8-|
E|5-7--8-5-7--7-5-7--5-8-7--8-8-8-8-|


Riff 7
e|----------------------------------------|
B|----------------------------------------|
G|----------------------------------------|
D|----------------------------------------|
A|----------------------------------------|
E|1111-3344-3333-3333-3333-3333-3333-3333-|

e|----------------------------------------|
B|----------------------------------------|
G|----------------------------------------|
D|----------------------------------------|
A|----------------------------------------|
E|4444-6677-6666-6666-6666-6666-6666-6666-|

e|----------------------------------------|
B|----------------------------------------|
G|----------------------------------------|
D|----------------------------------------|
A|----------------------------------------|
E|1111-3344-3333-3333-3333-3333-3333-3333-|

e|----------------------------------------|
B|----------------------------------------|
G|----------------------------------------|
D|----------------------------------------|
A|----------------------------------------|
E|7777-6677-4444-4444-4444-4444-4444-4444-|

e|----------------------------------------|
B|----------------------------------------|
G|----------------------------------------|
D|----------------------------------------|
A|----------------------------------------|
E|1111-3344-3333-3333-3333-3333-3333-3333-|

e|----------------------------------------|
B|----------------------------------------|
G|----------------------------------------|
D|----------------------------------------|
A|----------------------------------------|
E|4444-6677-6666-6666-6666-6666-6666-6666-|

e|----------------------------------------|
B|----------------------------------------|
G|----------------------------------------|
D|----------------------------------------|
A|----------------------------------------|
E|1111-3344-3333-3333-3333-3333-3333-3333-|

e|------------------------------|
B|------------------------------|
G|------------------------------|
D|------------------------------|
A|------------------------------|
E|7-7-6-6-7-7-4-4------4-4--4-4-|


Outro
e|----|
B|----|
G|----|
D|-10-|
A|-8--|
E|----|

|. = Palm Mute

Arrangment:
Riff1 x1
Riff2 x8
Riff3 x1
Riff1 x1
Riff2 x8
Riff3 x1
Riff1 x1 (Replace Riff 1F with Riff 1E)
Riff4 x2
Riff5 x2
Riff4 x2
Riff5 x2
Riff6 x8
Riff7 x1
Riff1 x1
Outro x1
Tap to rate this tab
 
# A B C D E F G H I J K L M N O P Q R S T U V W X Y Z