Song name
# A B C D E F G H I J K L M N O P Q R S T U V W X Y Z

Napalm Death - Kill tab

-------------------------------------------------------------------------------
			     THE KILL - Napalm Death
-------------------------------------------------------------------------------
Tabbed by: GruBear

Tuning: Eb Standard

e|------------------------------|------------------------------|
B|------------------------------|------------------------------|
G|------------------------------|------------------------------|
D|--5-6-4--5-6-4--5-6-4--5-6-4--|--5-6-4--5-6-4--5-6-4--5-6-4--|
A|--5-6-4--5-6-4--5-6-4--5-6-4--|--5-6-4--5-6-4--5-6-4--5-6-4--|
E|--3-4-2--3-4-2--3-4-2--3-4-2--|--3-4-2--3-4-2--3-4-2--3-4-2--|

e|----------------------------------|------------------------------|
B|----------------------------------|------------------------------|
G|----------------------------------|------------------------------|
D|--9-10-8--9-10-8--9-10-8--9-10-8--|--5-6-4--5-6-4--5-6-4--5-6-4--|
A|--9-10-8--9-10-8--9-10-8--9-10-8--|--5-6-4--5-6-4--5-6-4--5-6-4--|
E|--7-8--6--7-8--6--7-8--6--7-8--6--|--3-4-2--3-4-2--3-4-2--3-4-2--|

e|----------------------------------|
B|----------------------------------|
G|----------------------------------|
D|--9-10-8--9-10-8--9-10-8--9-10-8--|
A|--9-10-8--9-10-8--9-10-8--9-10-8--|
E|--7-8--6--7-8--6--7-8--6--7-8--6--|
Tap to rate this tab
 
# A B C D E F G H I J K L M N O P Q R S T U V W X Y Z