Song name
# A B C D E F G H I J K L M N O P Q R S T U V W X Y Z

Napalm Death - Social Sterility tab

Help us improve GuitareTab! Take a short survey!
intro/verse riff: play a whole bunch of times!
  --------------------------------------------------------------------------|
  --------------------------------------------------------------------------|
  --------------------------------------------------------------------------|
  --------------------------------------------------------------------------|
  --4/3--3---4/3--3---4/3--3---7/6--6---4/3--3---4/3--3---4/3--3---7/6------|
  --2/1--1---2/1--1---2/1--1---5/4--4---2/1--1---2/1--1---2/1--1---5/4------|


  --------------------------------------------------------------------------|
  --------------------------------------------------------------------------|
  --------------------------------------------------------------------------|
  --4-3-4-3-4--3----4-3-4-3-4--3--------------------------------------------|
  --2-1-2-1-2--1----2-1-2-1-2--1--------------------------------------------|
  --------------------------------------------------------------------------|


  --------------------------------------------------------------------------|
  --------------------------------------------------------------------------|
  --------------------------------------------------------------------------|
  --------------------------------------------------------------------------|
  --2-3-4-3--2-3-4-3--------------------------------------------------------|
  --0-1-2-1--0-1-2-1--------------------------------------------------------|

  --------------------------------------------------------------------------|
  --------------------------------------------------------------------------|
  --------------------------------------------------------------------------|
  --------------------------------------------------------------------------|
  --4/3--3---4/3--3---4/3--3---7/6--6---4/3--3---4/3--3---4/3--3---7/6------|
  --2/1--1---2/1--1---2/1--1---5/4--4---2/1--1---2/1--1---2/1--1---5/4------|

  --------------------------------------------------------------------------|
  --------------------------------------------------------------------------|
  --------------------------------------------------------------------------|
  --4-3-4-3-4--3----4-3-4-3-444-333-----------------------------------------|
  --2-1-2-1-2--1----2-1-2-1-222-111--2--------------------------------------|
  -----------------------------------0--------------------------------------|


This is a fairly short song (although it's fairly long for "earlier"
Napalm!!!)
not much to say except enjoy the groove on this one!
Related for Social Sterility tab