Song name
# A B C D E F G H I J K L M N O P Q R S T U V W X Y Z

Napalm Death - Section tab

NAPALM DEATH-Section


riff 1
|----------------|
|----------------|
|----------------|
|-6-----6-222222-|
|-4-444-4-000000-|
|---222----------|


riff 2
|-----------------------------------|
|-----------------------------------|
|-----------------------------------|
|------------------------------3444-|
|-56564-56564------56564-56564-1222-|
|-34342-34342-2222-34342-34342------|



riff 3
|-----0-----------0---------------------------------------|
|-----0---0-------0---0-----------------------------------|
|-----0---4-------0---4-9999999999991010-9999999999991010-|
|---------5-----------5-----------------------------------|
|-0-0---0-----0-0---0---7777777777778888-7777777777778888-|
|---------------------------------------------------------|


riff 4      with this fill
|---------| |----|
|---------| |----|
|---------| |-7"-|
|-6-----6-| |-0"-|
|-4-444-4-| |-5"-|
|---222---| |----|


ending riff
|------------------|
|------------------|
|------------------|
|------------------|
|-7777777777778888-|
|------------------|
Tap to rate this tab
# A B C D E F G H I J K L M N O P Q R S T U V W X Y Z