Song name
# A B C D E F G H I J K L M N O P Q R S T U V W X Y Z

Napalm Death - Repression Out Of Uniform tab

Standard tuning E A D G B E
This is done with some type of disortion

Riff 1
|-------------------------------------------------------------------|
|---6----6----6----6----6----6----6----6----------------------------|
|-5----5----5----5----5----5----5----5------------------------------|
|-------------------------------------------------------------------|
|-------------------------------------------------------------------|
|-------------------------------------------------------------------|

Riff 2
|-------------------------------------------------------------------|
|-------------------------------------------------------------------|
|-------------------------------------------------------------------|
|-------------------------------------------------------------------|
|-------------------------------------------------------------------|
|-5p4-4/3-3/2-3p2-5p4-4/3-3p2-5p4-4/3-3p2---------------------------|

Riff 3
|-------------------------------------------------------------------|
|-------------------------------------------------------------------|
|-------------------------------------------------------------------|
|-------------------------------------------------------------------|
|-5-5-5-6-5-5-5-4-5-5-5-6-5-5-5-4-5-5-5-6-5-5-5-4-------------------|
|-6-6-6-7-6-6-6-5-6-6-6-7-6-6-6-5-6-6-6-7-6-6-6-5-------------------|

Riff 4
|-------------------------------------------------------------------|
|-------------------------------------------------------------------|
|-------------------------------------------------------------------|
|-------------------------------------------------------------------|
|-3-3-3-4-3-3-3-2-3-3-3-4-3-3-3-2-3-3-3-4-3-3-3-2-------------------|
|-2-2-2-3-2-2-2-1-2-2-2-3-2-2-2-1-2-2-2-3-2-2-2-1-------------------|

Riff 5
|-------------------------------------------------------------------|
|-------------------------------------------------------------------|
|-------------------------------------------------------------------|
|-------------------------------------------------------------------|
|-------------4p3-3/2-3p2--------------4p3-3/2-3p2------------------|
|-4p3-4/3-3p2-------------4p3-4/3-3p2-------------------------------|



Order:
Riff 1 and Riff 2
Riff 3
Riff 1 and Riff 2
Riff 4
Riff 5
Tap to rate this tab
# A B C D E F G H I J K L M N O P Q R S T U V W X Y Z