Song name
# A B C D E F G H I J K L M N O P Q R S T U V W X Y Z

Napalm Death - Taste The Poison tab

Riff A                              Riff B
C#|---------------|----------------|---------------|---------------|
G#|---------------|----------------|---------------|---------------|
E |---------------|----------------|---------------|------------4--|
B |-10------------|-10-------------|-4-------5--6--|-4-------6-----|
F#|-8--9-12-9-----|-8--9-12-9-7----|-2-3-3-3-------|-2-3-3-3-------|
C#|----7-10-7-----|----7-10-7-5----|---1-1-1-------|---1-1-1-------|
                                  Riff C
|---------------|----------------|-----------------|-----------------|
|---------------|----------------|---------4-------|-----------------|
|---------------|------------4-7-|-6-6-6-6-6-6-5-6-|-----------------|
|-4-------5--6--|-4-------6----0-|-0-0-0-0-0-0-----|-6-6-6-6-5-5-5-5-|
|-2-3-3-3-------|-2-3-3-3--------|-4-4-4-4-4-4-4-4-|-0-0-0-0-0-0-0-0-|
|---1-1-1-------|---1-1-1--------|-----------------|-4-4-4-4-3-3-3-3-|
Riff D (With bass)
|-----------|-----------|-----------|------------|
|-----------|----4------|-----------|----4--7----|
|-5--6------|-6---------|-5--6------|-6----------|
|-----------|-----------|-----------|------------|
|-----------|-----------|-----------|------------|
|-----------|-----------|-----------|------------|

SONG STRUCTURE:
Intro - Riff A x 4 times
Verse 1 - Riff B x 4 times
Chorus - Riff A x 4 times
Verse 2 - Riff B x 4 times
Riff C
Riff D (bass and guitars)
Verse 3 - Riff B x 4 times
Riff C x 2 times
Chorus - Riff A x 4 times
Tap to rate this tab
 
# A B C D E F G H I J K L M N O P Q R S T U V W X Y Z