Song name
# A B C D E F G H I J K L M N O P Q R S T U V W X Y Z

Napalm Death - From Enslavement To Obliteration tab

Artist:Napalm Death
Album:From Enslavement to Obliteration
Year:1998
Tabbed By:Nofx_2525


PLEASE NOTE EVERYONE: THIS IS A VERY SHORT ALBUM WITH ONLY 4 SONGS! ONE CAN'T
REALLY CALL THIS AN ALBUM BUT IT IS!! ENJOY!


1.Lucid Fairytale
2.Unchallenged Hate
3.Social Sterility
4.Dead

        HERE WE GO:


01.Lucid Fairytale:
.  - palm mute           /  - slide up to
\  - slide down to       ~  - vibrato
h  - hammer on           b  - Bend
p  - pull off            Suffixes for bend
t  - tap                 f  - full bend    h - half bend
ph - pinched harmonic    q  - quarter bend t - tap bend
*  - see comment         ^  - Hold bend    r release bend
x  - Stuccatto           ~  - vibrato bend
,  - slight palm mute    () - ghost note, sustained note
"  - tremolo note        <> - Trill

Tunning Down To D G C F A D
Riff 1
|-------------------------------------------------------------------|
|-------------------------------------------------------------------|
|-------------------------------------------------------------------|
|4------------------------------------------------------------------|
|2-5-3-3-3----------------------------------------------------------|
|--3-1-1-1----------------------------------------------------------|
Riff 2
|-------------------------------------------------------------------|
|-------------------------------------------------------------------|
|-------------------------------------------------------------------|
|---555---333444---555---333----------------------------------------|
|333333555111222333333555111333-------------------------------------|
|111---333------111---333---111-------------------------------------|


02.Unchallenged Hate:
.  - palm mute                  /  - slide up to
\  - slide down to              ~  - vibrato
"  - tremelo picking           ( ) - ghost note
b  - bend                       h  - hammer-on
fb - full bend (1 step)         p  - pull-off
hb - half bend (1/2 step)       r  - release a bend
t  - tapping                    ah - artificial harmonic

Tune Gtr to C#

--U N C H A L L E N G E D  H A T E--

[Riff A]
[-------------------------------------------]
[-------------------------------------------]
[*-----------------------------------------*][Gtrs.1&2]
[*-----------------------------------------*]
[--3\2--------------------3\2--------5--8---]
[--1\0--0--0--0--0--0--0--1\0--0--0--3--6---]
    sl  .  .  .  .  .  .   sl  .  .

[-------------------------------------------]
[-------------------------------------------]
[*-----------------------------------------*][Gtrs.1&2]
[*-----------------------------------------*]
[--3\2--------------------3\2--------8--5---]
[--1\0--0--0--0--0--0--0--1\0--0--0--6--3---]
    sl  .  .  .  .  .  .   sl  .  .


Riff A [3tx]


[Riff B]
[-------------------------------|------------------------------]
[-------------------------------|------------------------------]
[*------------------------------|-----------------------------*][Gtrs.1&2]
[*------------------------------|---------------3-------------*]
[--2------3------5------4_5_4_5-|-2------3------1------5-------]
[--0------1------3-------h-p-h--|-0------1-------------3-------]

[-------------------------------|------------------------------]
[-------------------------------|------------------------------]
[*------------------------------|-----------------------------*][Gtrs.1&2]
[*------------------------------|---------------3-------------*]
[--2------3------5------4_5_4_5-|-2------3------1------5-------]
[--0------1------3-------h-p-h--|-0------1-------------3-------]


Riff A [2tx]
Riff B [2tx]


[Fill 1]
[----------------]
[----------------]
[*--------------*][Gtrs.1&2]
[*--------------*]
[--2-------------]
[--0-------------]
[Hold]


[Riff C]
[---------------------------------|----------------------------------------]
[---------------------------------|----------------------------------------]
[*--------------------------------|---------------------------------------*][Gtr.1]
[*--------------------------------|---------------3-----------------------*]
[--3\2--------------------3\2-3\2-|----------5----1--3\2-------------------]
[--1\0--0-0--0--0--0--0-0-1\0-1\0-|-0--0--0--3_0-----1\0--0-0--0--0--0--0--]
    sl  . .  .  .  .  .    sl  sl   .  .  .   p       sl  . .  .  .  .  .

[---------------------------------|----------------------------------------]
[---------------------------------|----------------------------------------]
[*--------------------------------|---------------------------------------*][Gtr.2]
[*--------------------------------|---------------------------------------*]
[--(2)----------------------------|----------------------------------------]
[--(0)----------------------------|----------------------------------------]

[---------------------------------]
[---------------------------------]
[*-------------------------------*][Gtrs.1&2]
[*-------------------------------*]
[----3\2-3\2-----------6\3-6------]
[--0-1\0-1\0--0--0--0--4\1-4------]
      sl  sl  .  .  .   sl


Riff C [3tx]


[Fill 2]
[------]
[------]
[*----*][Gtrs.1&2]
[*----*]
[--2---]
[--0---]
[Pause]


[Riff D]
[----------------------|------------------------]
[----------------------|------------------------]
[*---------------------|-----------------------*][Gtrs.1&2]
[*---------------------|-----------------------*]
[-------------------4"-|----------1"------------]
[--0"--3"--1"--3"------|-0"--1"-------3"---1"---]


[Riff E]
[----------------------------------|----------------------------------]
[----------------------------------|----------------------------------]
[*---------------------------------|---------------------------------*][Gtrs.1&2]
[*---------------------------------|---------------------------------*]
[---------------5"-----4"----------|-6"------------------5"--4"-------]
[--4"------------------------5"----|--------4"------------------------]

[----------------------------------]
[----------------------------------]
[*--------------------------------*][Gtrs.1&2]
[*--------------------------------*]
[-------6"-------------------------]
[--5"--------4"--------------------]


Riff D [2tx]
Riff E [2tx]


[Riff F]
[--------------------------|------------------|-------------------]
[--------------------------|------------------|-------------------]
[*-------------------------|------------------|------------------*][Gtrs.1&2]
[*--------3--4-------------|-3--4-------------|-3--4-------------*]
[--2------1--2--5---2------|-1--2--5---2------|-1--2--5---2-------]
[--0------------3---0------|-------3---0------|-------3---0-------]

[--------------------------]
[--------------------------]
[*------------------------*][Gtrs.1&2]
[*-3--4-------------------*]
[--1--2--5-----------------]
[--------3-----------------]


[Riff G]
[------------------------------|------------------------------]
[------------------------------|------------------------------]
[*-----------------------------|-----------------------------*][Gtrs.1&2]
[*----------------3--4---------|----------------3--4---------*]
[--3---5------2---1--2--5---2--|-3---5------2---1--2--5---2---]
[--1---3------0---------3---0--|-1---3------0---------3---0---]

[------------------------------|------------------------------]
[------------------------------|------------------------------]
[*-----------------------------|-----------------------------*][Gtrs.1&2]
[*----------------3--4---------|----------------3--4---------*]
[--3---5------2---1--2--5---2--|-3---5------2---1--2--5---2---]
[--1---3------0---------3---0--|-1---3------0---------3---0---]


[Riff H]
[--------------------------------|-------------------------------]
[--------------------------------|-------------------------------]
[*-------------------------------|------------------------------*][Gtrs.1&2]
[*-------------------------------|------------------------------*]
[--------------------------------|-3"----4"----------------------]
[--0"----------3"----1"----4"----|--------------3"----1"---------]


[Riff I]
[---------------------------|------------------------------]
[---------------------------|------------------------------]
[*--------------------------|-----------------------------*][Gtrs.1&2]
[*----------------4--3------|----------------4--3---------*]
[--2---5------3---2--1--5---|-2---5------3---2--1--5---2---]
[--0---3------1---------3---|-0---3------1---------3---0---]

[---------------------------|------------------------------]
[---------------------------|------------------------------]
[*--------------------------|-----------------------------*][Gtrs.1&2]
[*----------------4--3------|----------------4--3---------*]
[--2---5------3---2--1--5---|-2---5------3---2--1--5---2---]
[--0---3------1---------3---|-0---3------1---------3---0---]


[Riff J]
[-------------------------|-------------------------]
[-------------------------|-------------------------]
[*------------------------|------------------------*][Gtrs.1&2]
[*------------------------|------------------------*]
[-------------------------|-------------------------]
[--0"----------1"----4"---|-3"----4"----1"----------]


[Riff F.1]
[--------------------------|------------------|-------------------]
[--------------------------|------------------|-------------------]
[*-------------------------|------------------|------------------*][Gtrs.1&2]
[*--------3--4-------------|-3--4-------------|-3--4-------------*]
[--2------1--2--5---2------|-1--2--5---2------|-1--2--5---2-------]
[--0------------3---0------|-------3---0------|-------3---0-------]

[--------------------------]
[--------------------------]
[*------------------------*][Gtrs.1&2]
[*-3--4-------------------*]
[--1--2--5---2-------------]
[--------3---0-------------]


03.Social Sterility:
intro/verse riff: play a whole bunch of times!
  --------------------------------------------------------------------------|
  --------------------------------------------------------------------------|
  --------------------------------------------------------------------------|
  --------------------------------------------------------------------------|
  --4/3--3---4/3--3---4/3--3---7/6--6---4/3--3---4/3--3---4/3--3---7/6------|
  --2/1--1---2/1--1---2/1--1---5/4--4---2/1--1---2/1--1---2/1--1---5/4------|


  --------------------------------------------------------------------------|
  --------------------------------------------------------------------------|
  --------------------------------------------------------------------------|
  --4-3-4-3-4--3----4-3-4-3-4--3--------------------------------------------|
  --2-1-2-1-2--1----2-1-2-1-2--1--------------------------------------------|
  --------------------------------------------------------------------------|


  --------------------------------------------------------------------------|
  --------------------------------------------------------------------------|
  --------------------------------------------------------------------------|
  --------------------------------------------------------------------------|
  --2-3-4-3--2-3-4-3--------------------------------------------------------|
  --0-1-2-1--0-1-2-1--------------------------------------------------------|

  --------------------------------------------------------------------------|
  --------------------------------------------------------------------------|
  --------------------------------------------------------------------------|
  --------------------------------------------------------------------------|
  --4/3--3---4/3--3---4/3--3---7/6--6---4/3--3---4/3--3---4/3--3---7/6------|
  --2/1--1---2/1--1---2/1--1---5/4--4---2/1--1---2/1--1---2/1--1---5/4------|

  --------------------------------------------------------------------------|
  --------------------------------------------------------------------------|
  --------------------------------------------------------------------------|
  --4-3-4-3-4--3----4-3-4-3-444-333-----------------------------------------|
  --2-1-2-1-2--1----2-1-2-1-222-111--2--------------------------------------|
  -----------------------------------0--------------------------------------|

04.Dead:
Detune down one whole step (E=D and so forth)

Main Riff
D-------------------|
A-------------------|
F-------------------|
C-------------------|
G--4/8---7-6-5-2----|
D--2/6---5-4-3-0----|

stuff:
/=Slide up
\=Slide down
^=Hammer
(A very short song for Napalm Death!)









                      THANKS FOR READING THIS TAB AND PLEASE RATE. PEACE OUT
Tap to rate this tab
# A B C D E F G H I J K L M N O P Q R S T U V W X Y Z