Song name
# A B C D E F G H I J K L M N O P Q R S T U V W X Y Z

Napalm Death - Common Enemy tab

Band: Napalm Deateh
Album: Scum
Song: Common Enemy
Copyright (c) Earache Records - 1987

Tab Written On - January 16th, 2007

Transcribed By: Jordan J.
Email: spotlight_72@hotmail.com

Legend:
/  - slide up to
h - hammer on

Tuning: Drop D:
(D A D G B E)

Intro
E|-------------------|
B|-------------------|
G|-------------------|   X 4
D|-------------------|
A|-1-1-1-1--1/4-5----|
D|-1-1-1-1--1/4-5----|

Middle
E|-------------------|
B|-------------------|
G|-------------------|   X 8   (go psychotic with shredding)
D|-------------------|
A|--3/4/5--4h5-3-----|
D|--3/4/5--4h5-3-----|

End
E|---|
B|---|
G|---|   
D|---|
A|-1-|
D|-1-|

Finished...

Very fast in the middle, but that's just Napalm Death for you =D.

- Jordo.
Tap to rate this tab
# A B C D E F G H I J K L M N O P Q R S T U V W X Y Z