Song name
# A B C D E F G H I J K L M N O P Q R S T U V W X Y Z

Napalm Hatchet - Altar Ego tab

These guys are an old death metal band and don't have an official web page.
Hoping I can still post this here.  They used to be signed to
Necroharmonic Productions.
This is the best I got:  http://www.last.fm/music/Napalm+Hatchet

Double drop D (standard for all their songs)
Can't understand most of the lyrics

Main riff:
D|-----------14-------12-----------------------------|
B|--------------12-------10--------------------------|
G|-----------------7--------9------------------------|
D|-0-0-0-2-3-------------------0-0-0~~~~~~~----------|
A|-0-0-0-2-3-------------------0-0-0~~~~~~~----------|
D|-0-0-0-2-3-------------------0-0-0~~~~~~~----------|
   Bloooooooood.....          *howls*

Play main riff 7x

Then when your hear the chainsaw start up:
D|----------9\0--------------------------------------|
B|----------9\0--------------------------------------|
G|----------9\0--------------------------------------|
D|-0h2h4/9--------5-3-0-----------5h6p5h6p5h6p5h6p5--|
A|-2-------------------------------------------------|
D|-5----------------------0-0-0----------------------|
                  Dooooom awaits

Gustav's drum solo.  SICK

Chorus:
D|---------------------------------------------------|
B|---------------------------------------------------|
G|---------------------------------------------------|
D|-2----3------4----/6-------2-------3--0------------|
A|-2----3------4----/6-------2-------3--0------------|
D|-2----3------4----/6-------2-------3--0------------|
   Four dollar sacrifice     Skewers of meat

Not sure of the rest but I think they start detuning
the strings and playing angular chords.
Tap to rate this tab
 
# A B C D E F G H I J K L M N O P Q R S T U V W X Y Z