Song name
# A B C D E F G H I J K L M N O P Q R S T U V W X Y Z

Napoleon Coste - Mthode Complte Pour La Guitare Par Ferdinand Sor - No 18 tab

Leccion 18 from Sor/Coste Method for Guitar, Time signature 3:4
Tab by Francisco Galera.

   |     |     |      |     |     |      |     |     |      |     |     |
E|------------------|------------------|------------------|----------------|
B|------------------|------------------|----------------3-|----------3-----|
G|------------------|------------------|----------0--3----|-------2--------|
D|-------0----------|-------0----------|-------0----------|----4-----------|
A|----1-----1--0----|----0-----3--1--0-|----1-------------|-5=======----5--|
E|-3==========----3-|-2----------------|-3==========------|----------------|

   |     |     |      |     |     |      |     |     |      |     |     |
E|------------------|-------------3--6-|-5--2-------------|----------3-----|
B|----------4--3----|----------3-------|-------3--4-------|-------3--------|
G|-------5--------5-|-------3----------|-------------5--2-|----3----------*|
D|----5-------------|----5-------------|-0============----|-5========---5-*|
A|-3============----|-5============----|------------------|----------------|
E|------------------|------------------|------------------|----------------|
                                                                        Fine

   |     |     |       |     |     |     |     |     |      |     |     |
E|------------------|-----------8------|------------------|----------6-----|
B|-------3--6--4--3-|--------8---------|-------1--4--3--1-|-------6--------|
G|----4-------------|-----8------------|----2-------------|----7-----------|
D|-5===========-----|-10=======----10--|-3=========-------|-8=======----8--|
A|------------------|------------------|------------------|----------------|
E|------------------|------------------|------------------|----------------|

   |     |     |      |     |     |      |     |     |      |   |     |
E|------------------|----------3-------|----3-----3-----3-|-2--------------|
B|------------------|-------3-----4--3-|-2-----2-----2----|-3--------------|
G|-------2--5--3--2-|----3-------------|-------3----------|-2--------------|
D|----4-------------|-5=========-------|-1-----------1----|-0--------------|
A|-5==========------|------------------|------------------|--------3--1--0-|
E|------------------|------------------|------------------|----------------|
                                                                D.C. al Fine
Tap to rate this tab
# A B C D E F G H I J K L M N O P Q R S T U V W X Y Z