Song name
# A B C D E F G H I J K L M N O P Q R S T U V W X Y Z

Nappy Roots - Po Folks tab

Help us improve GuitareTab! Take a short survey!
Tuning: Standard (E A D G B e)


The tab is not meant to be played exactly like this...this is just a 
general idea. Just listen to the song to get the idea for upstrokes,
downstrokes and string mutes...enjoy. This riff and small variations of
this riff will get you through the entire song.



e|---------------------------------------------------------------------|
B|-----10-10-----------------------9h10p9-------10-10------------------|
G|-----11-11--9-99h11p9--7~-9-7--9-------9~-----11-11--9--99h11p9-7~-9-|
D|-11--11-11--9-99h11p9-----9-7-------------11--11-11--9--99h11p9----9-|
A|-9---9--9---9-99------------7-------------9---9--9---9--99-----------|
E|---------------------------------------------------------------------|

e|---------------------------------------------------------------------|
B|-9h10p9--------------------------------------------------------------|
G|--------9h11p9-------------------------------------------------------|
D|---------------9h11p9------------------------------------------------|
A|---------------------------------------------------------------------|
E|---------------------------------------------------------------------|
Related for Po Folks tab