Nargaroth - I Burn For You tab

-------------------------------------------------------------------------------
			     I Burn For You  - Nargaroth
-------------------------------------------------------------------------------
Tabbed by: albatros_1994
Email: albatros_1994

Tuning:Standard

Riff 1

e|---------------------------------------------------------------------------|
B|---------------------------------------------------------------------------|
G|---------------------------------------------------------------------------| X4
D|---------------------------------------------------------------------------|
A|--3/5-5-5-5-5\3-3/5-5-5/8-8-7----------------------------------------------|
E|--1/3-3-3-3-3\1-1/3-3-3/6-6-5----------------------------------------------|

Riff 2

e|---------------------------------------------------------------------------|
B|---------------------------------------------------------------------------|
G|---------------------------------------------------------------------------| X2
D|---------------------------------------------------------------------------|
A|------7...----8...----5...----7...-----------------------------------------|
E|--5...----6...----6...----8...---------------------------------------------|

Riff 3

e|---------------------------------------------------------------------------|
B|---------------------------------------------------------------------------|
G|---------------------------------------------------------------------------| X2
D|---------------------------------------------------------------------------|
A|----------7-7-7-7---------8-8-8-8---------5-5-5-5---------7-7-7-7----------|
E|--5-5-5-5---------6-6-6-6---------6-6-6-6---------8-8-8-8------------------|

Riff 1a

e|---------------------------------------------------------------------------|
B|---------------------------------------------------------------------------|
G|---------------------------------------------------------------------------| X4
D|---------------------------------------------------------------------------|
A|--3/5-5-5-5-5\3-3/5-5-5/8-8-7----------------------------------------------|
E|--1/3-3-3-3-3\1-1/3-3-3/6-6-5----------------------------------------------|

Riff 2a

e|---------------------------------------------------------------------------|
B|---------------------------------------------------------------------------|
G|---------------------------------------------------------------------------| X2
D|---------------------------------------------------------------------------|
A|------7...----8...----5...----7...-----------------------------------------|
E|--5...----6...----6...----8...---------------------------------------------|

Riff 3a

e|---------------------------------------------------------------------------|
B|---------------------------------------------------------------------------|
G|---------------------------------------------------------------------------| X2
D|---------------------------------------------------------------------------|
A|----------7-7-7-7---------8-8-8-8---------5-5-5-5---------7-7-7-7----------|
E|--5-5-5-5---------6-6-6-6---------6-6-6-6---------8-8-8-8------------------|

Riff 1b

e|---------------------------------------------------------------------------|
B|---------------------------------------------------------------------------|
G|---------------------------------------------------------------------------| X10
D|---------------------------------------------------------------------------|
A|--3/5-5-5-5-5\3-3/5-5-5/8-8-7----------------------------------------------|
E|--1/3-3-3-3-3\1-1/3-3-3/6-6-5----------------------------------------------|


************************************

| /   slide up
| \   slide down
| h   hammer-on
| p   pull-off
| ~   vibrato
| +   harmonic
| x   Mute note
| b   Bend
| pb  Pre-bend
| br  Bend release
| pbr Pre-bend release
| brb Bend release bend

************************************
Tap to rate this tab
 
# A B C D E F G H I J K L M N O P Q R S T U V W X Y Z