Song name
# A B C D E F G H I J K L M N O P Q R S T U V W X Y Z

Nargaroth - Abschiedsbrief Des Prometheus tab

very simple song...

Riff1                          
|--------------------------------------|
|--------------------------------------|
|--7-7-7-7-10-10-10-10-9-9-9-9-9-9-9-9-|
|--0-0-0-0--0--0--0--0-0-0-0-0-8-8-8-8-|
|--------------------------------------|
|--------------------------------------|
                         
|------------------------------------------|
|------------------------------------------|
|--7-7-7-7-9-9-9-9--9--9--9--9-10-10-10-10-|
|--8-8-8-8-8-8-8-8-10-10-10-10-10-10-10-10-|
|------------------------------------------|
|------------------------------------------|

riff2                                          
|--------------------------------------|
|--------------------------------------|
|--------------------------------------|
|--7-7-7-7-10-10-10-10-9-9-9-9-9-9-9-9-|
|--0-0-0-0--0--0--0--0-0-0-0-0-8-8-8-8-|
|--------------------------------------|
                       
|------------------------------------------|
|------------------------------------------|
|------------------------------------------|
|--7-7-7-7-9-9-9-9--9--9--9--9-10-10-10-10-|
|--8-8-8-8-8-8-8-8-10-10-10-10-10-10-10-10-|
|------------------------------------------|
Tap to rate this tab
# A B C D E F G H I J K L M N O P Q R S T U V W X Y Z