Song name
# A B C D E F G H I J K L M N O P Q R S T U V W X Y Z

Narrows - I Give You Six Months tab

-------------------------------------------------------------------------------
			     I Give You Six Months - Narrows
-------------------------------------------------------------------------------
Tabbed by: Dankscarver
Email: Dankscarver@yahoo.com

Listen to the track closely for exact rhythm patterns. I havent figured out the second 
and I dont plan too. I dont own the rights to this song, Narrows does. Have fun!

Tuning: Drop D
Riff A
e|--------------------------------------------------------------------------|
B|-(12 Times)--(2 Times) ------(10 Times) --(2 Times)-----------------------|
G|-14---------14----------14--14----------14--------------------------------|
D|------------18--------------------------18--------------------------------|
A|--------------------------------------------------------------------------|
D|--------------------------------------------------------------------------|
Riff B
e|--------------------------------------------------------------------------|
B|--(9 Times)--(6 Times)--(2 Times)--(9 Times)--(2 Times)-------------------|
G|14---------16---------16---------17---------17----------------------------|
D|----------------------20--------------------21----------------------------|
A|--------------------------------------------------------------------------|
D|--------------------------------------------------------------------------|
Riff C
e|--------------------------------------------------|
B|--------------------------------------------------|
G|--------------------------------------------------|
D|----3----0----5-h-6----3----0----3--0--5--0-------|
A|----3----0----5-h-6----3----0----3--0--5--0-------|
D|----3----0----5-h-6----3----0----3--0--5--0-------|
                                [PM-----------------|

Order:
Riff A X 1
Riff B X 1
Riff A X 4 (Add an extra measure in the beginning before the clash)
-Slide before the clash at the end of the measure-
Riff C X 2
Riff B X 2
Bass Break
Riff C X 4 (No Palm Mute)
Riff C X 6

************************************

| /   slide up
| \   slide down
| h   hammer-on
| p   pull-off
| ~   vibrato
| +   harmonic
| x   Mute note
| b   Bend
| pb  Pre-bend
| br  Bend release
| pbr Pre-bend release
| brb Bend release bend

************************************
Tap to rate this tab
 
# A B C D E F G H I J K L M N O P Q R S T U V W X Y Z