Song name
# A B C D E F G H I J K L M N O P Q R S T U V W X Y Z

Nas - Dance tab

Artist: Nas 
Title : Dance
Album : God's Son

Repeated throughout the song
e|-------------------------------------------------|
B|-------------------------------------------------|
G|---------------0h2-------------------------------|
D|---0-2-2------------3---0h2-----0-0-0-0----------|
A|0--------3------------3------3------------3-3-2--|
E|------------1------------------------------------|

e|-------------------------------------------------|
B|-------------------------------------------------|
G|---------0-0-0-2/4-2-----------------------------|
D|--0h2-------------------0h2-----0-0-0-0----------|
A|0------3--------------3-----3-------------3-3-2--|
E|-------------------------------------------------|


Tap to rate this tab
# A B C D E F G H I J K L M N O P Q R S T U V W X Y Z