Nas - Message tab

-----------------------------------------------------------------------------
                             THE MESSAGE - Nas
-----------------------------------------------------------------------------

Tabbed by: Myself

Tuning: Standard

**************************************************************************************************
I suggest using barre chords (played high on the neck) as these notes are based on 
the following pattern: Gm, F, Eb

These notes are repeated throughout the whole song.
**************************************************************************************************

||        Gm        ||       F       ||        Eb        ||

e|------------------------------------------------------5-------------------|
B|---11-------11------10-------10------8------8-----8-----------------------|
G|--------------------------------------------------------------------------|
D|--------------------------------------------------------------------------|
A|--------12-----12--------10-----10-------8----8---5---5-------------------|
E|---10---------------8----------------6------------------------------------|
Tap to rate this tab
 
# A B C D E F G H I J K L M N O P Q R S T U V W X Y Z