Song name
# A B C D E F G H I J K L M N O P Q R S T U V W X Y Z

Nas - Affirmative Action tab

nas: affirmative action
by Mario Landaverde


there are like 3 main parts to this song (they sometimes appear mixed within the song)

---------------------------------------------------
-----------9--9------------------------------------
--------8--------8---------------------8-10-11-8---
--6--9--------------9--6-------------8-----------8-
-------------------------------6--9----------------
--------------------------------------------------- repeat as neccesary


pick these up and down rapidly
--------------------------------------------------------
--12-12-12-12-12-12-12-12--9-----9-9--------------------
-------------------------------------8------------------
---------------------------------------9---6------------
--------------------------------------------------------
--------------------------------------------------------
connect these two
---------------------------------------------------------
--11-11-11-11-11-11-11-11--------------------------------
--------------------------11--8-10-11-8------------------
---------------------------------------8-----------------
---------------------------------------------------------
---------------------------------------------------------


--------------------------------------------------------
--9-9--11-12-11-9------7-7--9-11-9-7--------------------
--------------------------------------------------------
--------------------------------------------------------
--------------------------------------------------------
--------------------------------------------------------


it seems to me that they use two identical guitars especially
in that transition in the girl's part.

all u need to know is here

questions or comments? 
mario@shmuks.com
Tap to rate this tab
 
# A B C D E F G H I J K L M N O P Q R S T U V W X Y Z