Song name
# A B C D E F G H I J K L M N O P Q R S T U V W X Y Z

Nascent - My Own tab

Nascent - My Own
This was tabbed for me by Andrew,
the guitarist/vocalist of nascent.
This is %100 right, please ask
permission before using.
==========================
http://www.nascentrock.com
==========================
Tuning: Eb
==========================
Chords used:
eb|-1--0--1--1--3-|
Bb|-1--0--1--1--3-|
Gb|-2--1--1--3--5-|
Db|-3--2--3--3--5-|
Ab|-3--2--3--1--3-|
Eb|-1--0--1--1--3-|
===========================
Verses riff, Chorus effect:

eb|---------------|
Bb|---------------|
Gb|-----2-------1-|
Db|-----3---2---2-|
Ab|-----3--2-2--2-|
Eb|-1-1-----------|

===========================
Chorus riff, Distortion and slight chorus

eb|---------------------|
Bb|---------------------|
Gb|-5-5-5-5-5-5-3-3---1-|
Db|-5-5-5-5-5-5-3-3-3-2-|
Ab|-3-3-3-3-3-3-1-1-3-2-|
Eb|-----------------1---|
===========================
Tap to rate this tab
# A B C D E F G H I J K L M N O P Q R S T U V W X Y Z