Song name
# A B C D E F G H I J K L M N O P Q R S T U V W X Y Z

Nasty Idols - Method To My Madness tab

-------------------------------------------------------------------------------
			     NASTY IDOLS - Method to My Madness
-------------------------------------------------------------------------------
Tabbed by: ironmanben
Email: bentrooper@gmail.com

Tuning: e B G D A E

verse:
e|-----------------------------|
B|-----------------------------|
G|-0--2-5--2---------0----0--2-|
D|-0--2-5--2---------0--2-0--2-|
A|-----------------0----2------|
E|-----------------------------|

pre-chorus:
e|-----------------|
B|-----------------|
G|-2---(2)-2---(2)-|
D|-2---(2)-2---(2)-|
A|-0---(0)-0---(0)-|
E|-----------------|

chorus:
-|  x3                              | x1                              |
(guitar 1:)                         |                                 |
e|----------------------------------|---------------------------------|
B|----------------------------------|---------------------------------|
G|-5-5-5-5----------7-7-7-7-7-7-7-7-|-5-5-5-5-4-4-4-4-----------------|
D|-5-5-5-5-5-5-5-5-77-7-7-7-7-7-7-7-|-5-5-5-5-5-5-5-5-9-9-9-9-9-9-9-9-|
A|-3-3-3-3-5-5-5-5------------------|-3-3-3-3-2-2-2-2-7-7-7-7-7-7-7-7-|
E|----------------------------------|-----------------0-0-0-0-0-0-0-0-|
-|(guitar 2:)                       |                                 |
e|----------------------------------|---------------------------------|
B|----------------------------------|---------------------------------|
G|--------------------------\\\\\\\\|---------------------------------|
D|--------------------------\\\\\\\\|---------------------------------|
A|----------------------------------|---------------------------------|
E|----------------------------------|---------------------------------|

guitar solo 1:
e|----------------------55555----------------------------17------555\\\|
B|----------------88--8-55555------------------------------17----555\\\|
G|----------------77--7------------------------------------------------|
D|-7-7-5h7-7~--------7-----------77557-775h7-77~-5-7~-//------5h7------|
A|------------------------------------8--------------------------------|
E|---------------------------------------------------------------------|

bridge:
e|-------------------------------------------------------------------------|
B|-------------------------------------------------------------------------|
G|-------------------------------------4-5---------------6-7---------------|
D|-3-2---------------6-7---------------4-5---------------6-7---------------|
A|-3-4---------------6-7---------------2-3~~~------------4-5~~~------------|
E|-1-2~~~------------4-5~~~------------------------------------------------|

-| x4               |
e|------------------|
B|------------------|
G|------------------|
D|-2------------(2)-|
A|-2------------(2)-|
E|-0------------(0)-|
-|                  |
e|------------------|
B|------------------|
G|------------------|
D|------------------|
A|------------------|
E|-\/\/\/\/\/\/\/\/-|


guitar solo:
e|-2-3-4-5-------------------------------------------------------------------|
B|-2-3-4-517--17--1717-------1717--------------------------------------------|
G|----------16--16----14^(16)----18p1618p1616p1416p1414p13p12--------14^(16--|
D|-----------------------------------------------------------14p13p12--------|
A|---------------------------------------------------------------------------|
E|---------------------------------------------------------------------------|

e|---------------------|-16-13p------|-181818161616---------|
B|---------------------|-------16p13-|-------------15151717-|
G|-12-14-14^(16)-12^-14|-------------|----------------------|
D|---------------------|-------------|----------------------|
A|---------------------|-------------|----------------------|
E|---------------------|-------------|----------------------|
                          ^repeat a bunch of times

-|(guitar 2 plays this x4 under the solo)|
e|------------------------------|
B|------------------------------|
G|------------------------------|
D|-9-9-9-9-9-9-9-9-9-9-9-9-7----|
A|-7-7-7-7-7-7-7-7-7-7-7-7-5--7-|
E|----------------------------5-|

Order:
verse x6
pre-chorus x1
chorus x1
verse x2 (2nd guitar plays guitar solo 1)
verse x4
pre-chorus x1
chorus x1
bridge x1
guitar solo x1
verse x3
pre-chorus x1
chorus x1 (repeat the last chord for a while)

| /  slide up
| \  slide down
| h  hammer-on
| p  pull-off
| ~  vibrato
| +  harmonic
| x  Mute note
===============================================================================
Tap to rate this tab
 
# A B C D E F G H I J K L M N O P Q R S T U V W X Y Z