Song name
# A B C D E F G H I J K L M N O P Q R S T U V W X Y Z

Nasum - The Final Sleep tab

-------------------------------------------------------------------------------
			                             THE FINAL SLEEP - Nasum
-------------------------------------------------------------------------------
Tabbed by: Alain Cloutier (Chaosvirus)
Email: alaincloutier@hotmail.com

Tuning: A,E,A,D,G,B,E (on 6 String Alternative way  A,E,A,D,F#,B)


  E  E  E  E  Q    E  E     E  E  E  E  E  E  E  E     E  E  E  E  Q    E  E   
-------------------------|--------------------------|-------------------------|
-------------------------|--------------------------|-------------------------|
-------------------------|--------------------------|-------------------------|
-------------------------|--------------------------|-------------------------|
----------------------7--|--7--------5--5--3--3-----|----------------------7--|
--1--1--1--0--0----------|-----5--5--------------5--|--1--1--1--0--0----------|
--1--1--1--0--0----0-----|--------------------------|--1--1--1--0--0----0-----|


  E  E  E  E  E  E  E  E     E  E  E  E  Q    E  E   
--------------------------|-------------------------|
--------------------------|-------------------------|
--------------------------|-------------------------|
--------------------------|-------------------------|
--7--------5--5--3--3-----|----------------------7--|
-----5--5--------------5--|--1--1--1--4--3----------|
--------------------------|--1--1--1--4--3----0-----|


  E   E   E  E  E  E  E  E     E  E  E  E  Q    E  E   
----------------------------|-------------------------|
----------------------------|-------------------------|
----------------------------|-------------------------|
----------------------------|-------------------------|
--7--10--10--5--5--3--3-----|----------------------7--|
-------------------------5--|--1--1--1--0--0----------|
----------------------------|--1--1--1--0--0----0-----|


  E  E  E  E  E  E   E  E     E  E  E  E  Q    E  E   
---------------------------|-------------------------|
---------------------------|-------------------------|
---------------------------|-------------------------|
---------------------------|-------------------------|
--7------------------------|----------------------7--|
-----5--5--7--7--8--10-----|--1--1--1--0--0----------|
---------------------------|--1--1--1--0--0----0-----|


  E  E  E  E  E  E  E  E     E  E  E  E  Q    E  E     E  E  E  E  E  E  E  E   
--------------------------|-------------------------|--------------------------|
--------------------------|-------------------------|--------------------------|
--------------------------|-------------------------|--------------------------|
--------------------------|-------------------------|--------------------------|
--7--------5--5--3--3-----|----------------------7--|--7--------5--5--3--3-----|
-----5--5--------------5--|--1--1--1--0--0----------|-----5--5--------------5--|
--------------------------|--1--1--1--0--0----0-----|--------------------------|


  E.  E.  E  Q    E  E     E   E   E  E  E  E  E  E     E  E  E  E  Q    E  E   
------------------------|----------------------------|-------------------------|
------------------------|----------------------------|-------------------------|
------------------------|----------------------------|-------------------------|
------------------------|----------------------------|-------------------------|
---------------------7--|--7--10--10--5--5--3--3-----|----------------------7--|
--1---1---4--3----------|-------------------------5--|--1--1--1--0--0----------|
--1---1---4--3----0-----|----------------------------|--1--1--1--0--0----0-----|


  E  E  E  E  E  E   E  E     E  E  E  E  H           W                 
---------------------------|-----------------------|-------------------|
---------------------------|-----------------------|-------------------|
---------------------------|-----------------------|-------------------|
---------------------------|-----------------------|-------------------|
--7------------------------|-----------------------|-------------------|
-----5--5--7--7--8--10-----|--------0--------------|-------------------|
---------------------------|--1--1-----0--0--------|--L----------------|


  E  E  E  E  H           W                   E.  E.  E  H         
-----------------------|-------------------|----------------------|
-----------------------|-------------------|----------------------|
-----------------------|-------------------|----------------------|
-----------------------|-------------------|----------------------|
-----------------------|-------------------|----------------------|
--------0--------------|-------------------|----------------------|
--1--1-----0--0--------|--L----------------|--1---1---4--3--------|


  W                   E  E  E  E  H           W                 
-------------------|-----------------------|-------------------|
-------------------|-----------------------|-------------------|
-------------------|-----------------------|-------------------|
-------------------|-----------------------|-------------------|
-------------------|-----------------------|-------------------|
-------------------|--------0--------------|-------------------|
--L----------------|--1--1-----0--0--------|--L----------------|


  E  E  E  E  Q    E  E     E  E  E  E  E  E  E  E     E  E  E  E  Q    E  E   
-------------------------|--------------------------|-------------------------|
-------------------------|--------------------------|-------------------------|
-------------------------|--------------------------|-------------------------|
-------------------------|--------------------------|-------------------------|
----------------------7--|--7--------5--5--3--3-----|----------------------7--|
--1--1--1--0--0----------|-----5--5--------------5--|--1--1--1--0--0----------|
--1--1--1--0--0----0-----|--------------------------|--1--1--1--0--0----0-----|


  E  E  E  E  E  E  E  E     E.  E.  E  Q    E  E   
--------------------------|------------------------|
--------------------------|------------------------|
--------------------------|------------------------|
--------------------------|------------------------|
--7--------5--5--3--3-----|---------------------7--|
-----5--5--------------5--|--1---1---4--3----------|
--------------------------|--1---1---4--3----0-----|


  E   E   E  E  E  E  E  E     E  E  E  E  Q    E  E   
----------------------------|-------------------------|
----------------------------|-------------------------|
----------------------------|-------------------------|
----------------------------|-------------------------|
--7--10--10--5--5--3--3-----|----------------------7--|
-------------------------5--|--1--1--1--0--0----------|
----------------------------|--1--1--1--0--0----0-----|


  E  E  E  E  E  E   E  E     E  E  E  E  Q    E  E   
---------------------------|-------------------------|
---------------------------|-------------------------|
---------------------------|-------------------------|
---------------------------|-------------------------|
--7------------------------|----------------------7--|
-----5--5--7--7--8--10-----|--1--1--1--0--0----------|
---------------------------|--1--1--1--0--0----0-----|


  E  E  E  E  E  E  E  E     E  E  E  E  Q    E  E     E  E  E  E  E  E  E  E   
--------------------------|-------------------------|--------------------------|
--------------------------|-------------------------|--------------------------|
--------------------------|-------------------------|--------------------------|
--------------------------|-------------------------|--------------------------|
--7--------5--5--3--3-----|----------------------7--|--7--------5--5--3--3-----|
-----5--5--------------5--|--1--1--1--0--0----------|-----5--5--------------5--|
--------------------------|--1--1--1--0--0----0-----|--------------------------|


  E.  E.  E  Q    E  E     E   E   E  E  E  E  E  E     E  E  E  E  Q    E  E   
------------------------|----------------------------|-------------------------|
------------------------|----------------------------|-------------------------|
------------------------|----------------------------|-------------------------|
------------------------|----------------------------|-------------------------|
---------------------7--|--7--10--10--5--5--3--3-----|----------------------7--|
--1---1---4--3----------|-------------------------5--|--1--1--1--0--0----------|
--1---1---4--3----0-----|----------------------------|--1--1--1--0--0----0-----|


  E  E  E  E  E  E   E  E     E  E  E  E  Q    E  E   
---------------------------|-------------------------|
---------------------------|-------------------------|
---------------------------|-------------------------|
---------------------------|-------------------------|
--7------------------------|----------------------7--|
-----5--5--7--7--8--10-----|--------0----------------|
---------------------------|--1--1-----0--0----0-----|


  E  E  E  E  E  E  E  E     E  E  E  E  Q    E  E     E  E  E  E  E  E  E  E   
--------------------------|-------------------------|--------------------------|
--------------------------|-------------------------|--------------------------|
--------------------------|-------------------------|--------------------------|
--------------------------|-------------------------|--------------------------|
--7--------5--5--3--3-----|----------------------7--|--7--------5--5--3--3-----|
-----5--5--------------5--|--------0----------------|-----5--5--------------5--|
--------------------------|--1--1-----0--0----0-----|--------------------------|


  E.  E.  E  Q    E  E     E   E   E  E  E  E  E  E     E  E  E  E  Q    E  E   
------------------------|----------------------------|-------------------------|
------------------------|----------------------------|-------------------------|
------------------------|----------------------------|-------------------------|
------------------------|----------------------------|-------------------------|
---------------------7--|--7--10--10--5--5--3--3-----|----------------------7--|
------------------------|-------------------------5--|--------0----------------|
--1---1---4--3----0-----|----------------------------|--1--1-----0--0----0-----|


  E  E  E  E  E  E   Q       H.           Q      
--------------------------|--------------------||
--------------------------|--------------------||
--------------------------|--------------------||
--------------------------|--------------------||
--7-----------------------|--------------------||
-----5--5--7--7--8--10----|--L-----------------||
--------------------------|--------------------||




Duration Legend
---------------
W - whole
H - half
Q - quarter
E - 8th
S - 16th
T - 32nd
X - 64th
Tap to rate this tab
# A B C D E F G H I J K L M N O P Q R S T U V W X Y Z