Song name
# A B C D E F G H I J K L M N O P Q R S T U V W X Y Z

Nasum - Time To Act tab

Help us improve GuitareTab! Take a short survey!
Nasum - Time To Act
Album: Inhale - Exhale
Tuning: Dropped B (B F# B E G# C#)

Pretty simple song to play. This tab I made sounds pretty accurate to me.

Riff 1
Grind the notes out of your instrument.
C#|------------------------|
G#|------------------------|
E |------------------------|
B |------------------------|
F#|555755575557555000------|
B |------------------------|

Riff 2
This riff follows the rhythm of d-beat. Figure it out yourself.

C#|-------------------------------------|
G#|-------------------------------------|
E |-------------------------------------|
B |3-3---3---3-3---3---6-6---6---6-6---6|
F#|3-3---3---3-3---3---6-6---6---6-6---6|
B |3-3---3---3-3---3---6-6---6---6-6---6|

C#|-------------------------------------|
G#|-------------------------------------|
E |-------------------------------------|
B |0-0---0---0-0---0---0-0---0---0-0---0|
F#|0-0---0---0-0---0---0-0---0---0-0---0|
B |0-0---0---0-0---0---0-0---0---0-0---0|
^ Ending one
C#|-------------------------------------|
G#|-------------------------------------|
E |-------------------------------------|
B |3-3---3---3-3---3---6-6---6---6-6---6|
F#|3-3---3---3-3---3---6-6---6---6-6---6|
B |3-3---3---3-3---3---6-6---6---6-6---6|

C#|-------------------------------------|
G#|-------------------------------------|
E |-------------------------------------|
B |-------------------------------------|
F#|5555555555555555555555555555555555555|
B |-------------------------------------|
^ Ending two. You can play ending one here as well, it surely sounds better.

Riff 3
Strange midpart, try to figure the rhythm out in this too. Follow the d-beat.

C#|----------------------|
G#|----------------------|
E |----------------------|
B |0---30---30---30--6---|
F#|0---30---30---30--6---|
B |0---30---30---30--6---|

Song:
Riff one * x
Riff two
Riff one * x
Riff two * 2
Riff three * x
Riff two * 2

If you are playing this song with band or whatever,
you will surely notice that song will sound much
better if bass parts are played an octave lower than 
in the original song.

Corrections etc. are welcome, email inwadelma@hotmail.com
Related for Time To Act tab