Guitaretab - guitar tabs
Song name
# A B C D E F G H I J K L M N O P Q R S T U V W X Y Z

Nasum - Re-create The System tab

Band: Nasum
Album: Really Fast, Vol. 9
Song: Re-Create The System
Copyright (c) Really Fast Records, 1993

Tab Written On - April 11th, 2007

Transcribed By: Jordan J.
Email: spotlight_72@hotmail.com

Legend:
/  - slide up to
\ - slide down to
' - palm mute

Tuning: Drop D:
(D A D G B E)

E|---------------------------------|
B|---------------------------------|
G|---------------------------------|   X 2
D|---------------------------------|
A|-0--0-0--3-0-3/6--6--0--3-3-3----|
D|-0--0-0--3-0-3/6--6--0--3-3-3----|

Guitar I (Rhythm)
E|---------------------------------|
B|---------------------------------|
G|---------------------------------|   X 2
D|---------------------------------|
A|-0--0-0--3-0-3/6--6--0--3-3-3----|
D|-0--0-0--3-0-3/6--6--0--3-3-3----|

Guitar II (Lead)
E|-----------------------------------|
B|-----------------------------------|
G|-----------------------------------|   X 2
D|-0--0-0--3-0-0--6-6--0---3-3-3-----|
A|-----------------------------------|
D|-----------------------------------|

Guitar I
E|----|
B|----|
G|----| 
D|----|
A|-0--|
D|-0--|

Guitar II
E|----|
B|----|
G|----| 
D|-5/-|
A|----|
D|----|
[ Tab from: http://www.guitaretab.com/n/nasum/87921.html ]
E|-----------------------------------------------------|
B|-----------------------------------------------------|
G|-----------------------------------------------------|  X 2 
D|-----------------------------------------------------| 
A|--5/6-0-5/6-0-5/6-0-7-7-7---1/2-0-1/2-0-1/2-0-1/2-0--|
D|--5/6-0-5/6-0-5/6-0-7-7-7---1/2-0-1/2-0-1/2-0-1/2-0--|
        '     '     '             '     '     '     '
E|-------------|
B|-------------|
G|-------------|   
D|-------------| 
A|--4-5-6-5-4--|
D|--4-5-6-5-4--|

E|-----------------------------------------------------|
B|-----------------------------------------------------|
G|-----------------------------------------------------|   
D|-----------------------------------------------------| 
A|--5/6-0-5/6-0-5/6-0-7-7-7---1/2-0-1/2-0-1/2-0-1/2-0--|
D|--5/6-0-5/6-0-5/6-0-7-7-7---1/2-0-1/2-0-1/2-0-1/2-0--|
        '     '     '             '     '     '     '
E|-----------------------------------------------------|
B|-----------------------------------------------------|
G|-----------------------------------------------------|   
D|-----------------------------------------------------| 
A|--5/6-0-5/6-0-5/6-0-7-7-7---1/2-0-1/2-0-1/2-0-2-2-2--|
D|--5/6-0-5/6-0-5/6-0-7-7-7---1/2-0-1/2-0-1/2-0-2-2-2--|
        '     '     '             '     '     '     

Finished...

Friggen classics, very punkish kinda riff to this Nasum song, gotta love it!

- Jordo.
Related for Re-create The System tab
Advertisement will be closed in 10 seconds