Song name
# A B C D E F G H I J K L M N O P Q R S T U V W X Y Z

Nat Adderley - Simple Work Song tab

A little funny jazz/blues worksong I tabbed from a video I found on youtube.
The video with the song is here:
http://www.youtube.com/watch?v=nCy5LRQh5Fw&feature=related
And the more slowmo video is here:
http://www.youtube.com/watch?v=nCy5LRQh5Fw&feature=related
I tabbed the song to learn it myself, and thought others may find it nice to
not have to tab it themself. Listen to the video to understand the rythm.

ENJOY!

E||-(1)------------------------------(1)----------------------------|
B||-(1)---------------------------4--(1)----------------------------|
G||--1-------------3--5--5--3--5------1------------3----------------|
D||--2---3--3--6----------------------2---3--3--6-----3--3----3-----|
A||--2--------------------------------2---------------------6-------|
E||--1--------------------------------1-----------------------------|

E||-(1)-----------------------------(0)-------------------------------|
B||-(1)-------------------------4----1--------4----4b-----------4-----|
G||--1-------------3--5--5--3--------0---5--5---5------5--3--5--------|
D||--3---3--3--6---------------------2--------------------------------|
A||--3-------------------------------3--------------------------------|
E||--1----------------------------------------------------------------|

E||-(1)------------------------------------(6)-----------|
B||-(1)-------------------------------------7------------|
G||--1------------3---------------4-5-------6-----3--4---|
D||--3---3--3--6----3--3----3--3------------8---3--------|
A||--3---------------------6----------------6------------|
E||--1--------------------------------------6------------|

E||-(6)------------------------------------(0)(0)---(1)(1)(1)----|
B||--6--------------------------------------1--1----(1)(1)(1)----|
G||--7------3/4--3----4--3------------------0--0-----1--1--1-----|
D||--6---3----------6-------6--3--3v--------2--2-----3--3--3-----|
A||--8-------------------------------6------3--3-----3--3--3-----|
E||--6-----------------------------------------------1--1--1-----|

I think it should be fully completed, but notice me on stianroeraas@gmail.com
if you notice something isn't right.

NORWAY ROCKS!!!
Tap to rate this tab
# A B C D E F G H I J K L M N O P Q R S T U V W X Y Z