Song name
# A B C D E F G H I J K L M N O P Q R S T U V W X Y Z

Nat And Alex Wolff - Thump Thump Thump tab

-------------------------------------------------------------------------------
                             Thump Thump Thump - Alex Wolff
-------------------------------------------------------------------------------
Tabbed by: MegaMrBuffalo

Tuning: Standard

e|---------------------------------------------------------------------------|
B|--------------------0--------------------0-------------------0-------------|
G|-------0---------0------------0--------0-----------0--------0--------0-----|
D|----0---------0-------------0--------0-----------0--------0--------0-------|
A|---------2h3---------------------2h3-------------------2h3---------------2h3|
E|-3-----------------------3---------------------3-----------------3---------|
*^^Repeat thru verse^^*

Pre Chorus:
      Em          Cadd9          G
e|---------------------------------------------------------------------------|
B|---------0---------3----------3------3-------------------------------------|
G|-------0----------0---------0------0---------------------------------------|
D|-----2-----------2--------0------0-----------------------------------------|
A|---------------3-----------------------------------------------------------|
E|---0--------------------3------3-------------------------------------------|        
      Your voice is raspy..... *Repeat* You're always happy....
       Em                 Cadd9            G            D
e|-------------------------------------------------------2h3p2---------------|
B|--------0-----------------3---------------3----------3---------------------|
G|------0-----------------0---------------0----------2-----------------------|
D|----2-----------------2---------------0----------0-------------------------|
A|--------------------3------------------------------------------------------|
E|--0---------------------------------3--------------------------------------|   
      When the girl finally sees, the guy is on his knees....

           Cadd9               D
e|-------3----------3------------2h3p2----------------------------------------|
B|------3---------3------------3---------------------------------------------|
G|----0---------0-------------2----------------------------------------------|
D|--------------------------0------------------------------------------------|
A|--3---------3--------------------------------------------------------------|
E|---------------------------------------------------------------------------|
   And hes beggin' please....

Chorus:
      G           Cadd9           Em
e|---------------------------------------------------------------------------|
B|---------------------------------------------------------------------------|
G|--------0---------0---------0---------0------------------------------------|
D|------0---------2---------2---------2--------------------------------------|
A|--------------3------------------------------------------------------------|
E|----3-------------------0---------0----------------------------------------|  
*Repeat thru chorus*
    
    *Play the same thing as first verse.


I couldn't figure out the bridge.... :(

Tap to rate this tab
# A B C D E F G H I J K L M N O P Q R S T U V W X Y Z