Song name
# A B C D E F G H I J K L M N O P Q R S T U V W X Y Z

Nat And Alex Wolff - I Wont Love You Any Less tab

Just did this by ear so it may be a bit off. Standard tuning, no capo. Enjoy! For the 
note picking on the G chord, it may be done on a separate guitar.

Am  D  G  C  C/B  Dsus4  Em
-0--2--2--0---0-----3-----0-|
-1--3--2--1---1-----3-----0-|
-2--2--0--0---0-----2-----0-|
-2--0--0--2---0-----0-----2-|
-0--0--2--3---2-----0-----2-|
-0--0--3--0---0-----0-----0-|

 |        Am      |        D        |        G       |    C   |    C/B   |
e|--------0-----------------2----------------2---------------------------|
B|----------1---1---------3---3---3------------2---2---------1--------1--|
G|------2-----2---------2-------2----------0-----0---------0--------0----|
D|----2---------------0----------------------------------2--------0------|
A|--0------------------------------------2-------------3--------2--------|
E|-------------------------------------3---------------------------------|
 |       Am       |      D    Dsus4   D      |
e|--------0---------------2-----3-----2----------------------------------|
B|----------1---1-------3---3-----3-----3---3----------------------------|
G|------2-----2-------2-------2-----2-----2------------------------------|
D|----2-------------0----------------------------------------------------|
A|--0--------------------------------------------------------------------|
E|-----------------------------------------------------------------------|

G              C
If you make me stay outside
G                C        D
For a glance to last the night
C             D   Em
If you put me in distress
Am       C            G
I won't love you any less

e|--3--3--4--4--5--5--|
B|--3--3--4--4--4--4--|
G|--------------------|
D|--------------------|
A|--------------------|
E|--------------------|

Am       C            G
I won't love you any less

G                C
If you twist my fragile heart
       G                   C      D
And it breaks into pieces in the dark
C               D        Em
If you leave a dangerous mess
Am       C             G
I won't love you any less

e|--3--3--4--4--5--5--|
B|--3--3--4--4--4--4--|
G|--------------------|
D|--------------------|
A|--------------------|
E|--------------------|

Am        C             G     G    Am D
I won't love you any less

e|--2--2--3--3--2--2--|
B|--3--3--3--3--3--3--|
G|--------------------|
D|--------------------|
A|--------------------|
E|--------------------|

G            C
If I try to hold your hand
          G                       C       D
While you slip and slide towards another man
C               D      Em
Cause of you I get no rest
Am        C           G
I won't love you any less

e|--3--3--4--4--5--5--|
B|--3--3--4--4--4--4--|
G|--------------------|
D|--------------------|
A|--------------------|
E|--------------------|

Am       C
I won't love you any less

e|----------3-------|
B|--------3---3-----|
G|------0-------0---|
D|----0----------0--|
A|--2---------------|
E|------------------|

Am       C                G
I won't love yooouuu any less

Am        D        G     C     C/B
Sha la la la la la la la la la la
Am           D            G         Em
Sha la la la la la la la la la laa laaa
Am        D
Sha la la la

e|--2--2--3--3--2--2--|
B|--3--3--3--3--3--3--|
G|--------------------|
D|--------------------|
A|--------------------|
E|--------------------|

G             C
And when I'm old and grey
G                             C     D
I've got no wings but you've flown away
C                 D      Em
You've put me to quite a test
Am           C
But I won't love you any less

e|----------3-------|
B|--------3---3-----|
G|------0-------0---|
D|----0----------0--|
A|--2---------------|
E|------------------|

Am       C
I won't love you any less

e|----------3-------|
B|--------3---3-----|
G|------0-------0---|
D|----0----------0--|
A|--2---------------|
E|------------------|

Am       C
I won't love yoooouuuu any less

e|----------3--------3--|
B|--------3-----3----3--|
G|------0------------0--|
D|----0--------------0--|
A|--2----------------2--|
E|-------------------3--|
Tap to rate this tab
# A B C D E F G H I J K L M N O P Q R S T U V W X Y Z