Song name
# A B C D E F G H I J K L M N O P Q R S T U V W X Y Z

Nat King Cole - Christmas Song tab

Nat King Cole
The Christmas Song
Tuning: Standard
Transcribed by Soch Hean

These are the major guitar parts in the whole song.

Intro:
|------------------|
|-12=s11-----------|
|-11=s10-----------|
|-12=s11-----------|
|------------------|
|------------------|

Guitar: (2:20)
|--------------------------------------------------------------|
|----9-10--12--10h12p10--9-------------------------------------|
|-11-----------------------11~--9-11=s13--9--11--11~-----------|
|--------------------------------------------------------------|
|--------------------------------------------------------------|
|--------------------------------------------------------------|

|-------------------------------------------|
|-------------------------------------------|
|-9-11-9-8~-------8------8------8-----------|
|------------9-11---9-11---9-11-----6-------|
|-------------------------------------------|
|-------------------------------------------|

Outro:
|-13-13-13--13-13-13--13-16\--9--11----13----------------------|
|-13-13-13--13-13-13--13-16\--9--11----14----------------------|
|--------------------------------------13----------------------|
|--------------------------------------15----------------------|
|--------------------------------------------------------------|
|--------------------------------------------------------------|
Tap to rate this tab
# A B C D E F G H I J K L M N O P Q R S T U V W X Y Z