Song name
# A B C D E F G H I J K L M N O P Q R S T U V W X Y Z

Natalie Grant - Your Great Name tab

 
Chorus:

E|-11---10---6---8---|
B|-------------------|
G|-------------------| 3x
D|-------------------|
A|-------------------|
E|-------------------|
 
Intro:

E|-------------10---8---10---|
B|-8---6---8-----------------|
G|---------------------------| 3x
D|---------------------------|
A|---------------------------|
E|---------------------------|

E|-------------8---6---8---|
B|-8---6---8---------------|
G|-------------------------|
D|-------------------------|
A|-------------------------|
E|-------------------------|

Watch: www.youtube.com/watch?v=dJUaGLsajIw
Tap to rate this tab
# A B C D E F G H I J K L M N O P Q R S T U V W X Y Z