Song name
# A B C D E F G H I J K L M N O P Q R S T U V W X Y Z

Natalie Portmans Shaved Head - Sophisticated Sideways Ponytail tab

Natalie Portman's Shaved Head - Sophisticated Sideways Ponytail

Tuning: E A D G B E

Intro & Verse
E|---------------------------|
B|---------------------------|
G|---------------------------|
D|---------------------------|
A|-11~----10-9-----6-9-6-----|
E|---------------------------|

in Chord may be like this
E|---------------------------|
B|---------------------------|
G|-13------12-11-------------|
D|-13------12-11-------------|
A|-11------10-9--------------|
E|---------------------------|

Chorus (They play it like this)
E|---------------------------|
B|---------------------------|
G|--13-----------------------|
D|--13---------13------------|  x4
A|--11---------13------------|
E|-------------11------------|

E|---------------------------|
B|---------------------------|
G|---------------------------|
D|--11-----------------------|
A|--11-----------------------|
E|--9------------------------|


But like this may have more movility
E|---------------------------|
B|---------------------------|
G|-13--------------11-13-----|
D|-13-----13-------11-13-----|
A|-11-----13-------9--11-----|
E|--------11-----------------|

Calipso part

Part 1 (x2)
E|------------------------------------|
B|----13-16-13------------------------|
G|-13----------13---------12-15-12----|
D|---------------------13----------13-|
A|------------------------------------|
E|------------------------------------|

E|------------------------------------|
B|----13-16-13------------11-16-11----|
G|-13----------13------12----------12-|
D|------------------------------------| Repeat
A|------------------------------------|
E|------------------------------------|

Part 2
E|------------------------------------|
B|------------------------------14----|
G|----10-13-10------------10-13-------|
D|-11----------11------11-------------|
A|------------------------------------|
E|------------------------------------|

Tap to rate this tab
 
# A B C D E F G H I J K L M N O P Q R S T U V W X Y Z