Song name
# A B C D E F G H I J K L M N O P Q R S T U V W X Y Z

Natalie Ross - Me And Delilah tab

tuning = DGDGBD


Demo -
-----------------------| Top String
-----------------------|
-----------------------|
-----------------------|
-----------------------|
-----------------------| Bottom String

Intro -

-----------------|-----------------|-----------------|-----------------|
-----------------|-----------------|-----------------|-----------------|
-----------------|-----------------|-----------------|-----------------|
-----------------|-----------------|-----------------|-----------------|
-----------------|-----------------|-----------------|-----------------|
-2-3-3---3-2-3-0-|-2-3-3---3-2-3-0-|-2-3-3---3-2-3-0-|-2-3-3---3-2-3-0-|
-------2---------|-------2---------|-------2---------|-------2---------|


--------------------|---------------|---------------3--7--|
--------------3---0-|--------3---0--|-------3---0---------|
--------5---0-------|--5---0--------|-5---0---------------|
--------------------|---------------|---------------------|    x2
--------------------|---------------|---------------------|
--------------------|---------------|---------------------|

(Verse)
--------------------------------------------------3--7--|
--------------3---0---------3---0---------3---0---------|
--------5---0---------5---0---------5---0---------------|
--------------------------------------------------------|
--------------------------------------------------------|
--------------------------------------------------------|

(carry this riff on through the verse)

strictly speakin' today, your life has to change
you teach me, you teach me, you teach me, hoowwwwww
no time for failure,

Chorus
----------------------55555--33-77--|
------------------------------------|
----22222---55555-----55555--33-77--|    x4
------------------------------------|
----11111---55555-------------------|
------------------------------------|

here we are come what may, me and Delilah run away, aahuuh
take a trip for a day, Me and Delilah run awayyeeeeeee

Instrumental

----555-777---- x3

1st D ----10101010101010101010---55555---77777---55555---77777---|
2nd D ----10101010101010101010---55555---77777---55555---77777---|

1st D ----10101010101010101010---5-|
2nd D ----10101010101010101010---5-|

run,run,run,run awayeeeee
run,eun,run,run awayeeeee

(Verse riff)

bad behaivour delays, keeps us away from slumber,
it's lately, it's lately, it's lately, Why?
my questions are un - answered,

Chorus

Instrumental

Middle 8

------55555--77777--1010101010--13131313-|
-----------------------------------------|
------55555--77777--1010101010--13131313-|    x4
-----------------------------------------|
-----------------------------------------|
-----------------------------------------|

there's gonna be a change  x4

gonna beeee,
gonna beeee a changee yeah,
gonna be change,

solo

------------------------------------|-------------------------------------|
--------------------------------3-0-|---------------------------------3-0-|
----------------5-55----5-0-3-0-----|-------------------------5-0-3-0-----|
--4-44---2-22-----------------------|--4-44---7-77---4-44-----------------|
------------------------------------|-------------------------------------|
------------------------------------|-------------------------------------|

----------------|
----------3-0---|
--5-0-3-0-------|   x6
----------------|
----------------|
----------------|

chorus

----555-777-555
Tap to rate this tab
 
# A B C D E F G H I J K L M N O P Q R S T U V W X Y Z