Song name
# A B C D E F G H I J K L M N O P Q R S T U V W X Y Z

Natalie - Where Are You tab

intro
    D         A	          G
----2h3-2-|-0---2/3-|------------|
----3---3-|-2-------|-3--3h5-5---|
---2------|---------|-4-------4--|
--0-------|---------|------------|
----------|-0-0-----|-5-5--------|
----------|---------|------------|

    D         A         D     G
----2h3-2-|-0---2/3-|-2--0-2|-5~|
----3---3-|-2-------|-3-----|-3~|
---2------|---------|-------|-4~|
--0-------|---------|-0-0---|-5~|
----------|-0-0-----|-------|-3~|
----------|---------|-------|-3~|
Tap to rate this tab
# A B C D E F G H I J K L M N O P Q R S T U V W X Y Z