Song name
# A B C D E F G H I J K L M N O P Q R S T U V W X Y Z

Natasha Bedingfield - Love Like This tab

--------------------------------------------------
			    Natasha Bedingfield Love Like this
-------------------------------------------------------------------------------
Tabbed by: sasmith17
Email: steven.smith.a@gmail.com
Half Step Down Tunning 
Intro X 2
	C#M	      A/F#     Bm   Esus2     C#m
e|-------x------------9--------7----7---------x--------------|
B|-------5------------10-------7----7---------5--------------|
G|-------6------------9--------7----9---------6--------------|
D|-------6------------11-------9----9---------6--------------|
A|-------x------------9--------9----7---------x--------------|
E|-------5---------------------7--------------5--------------|
Use your thumb		   Quick Chord Change

Never find a love like this……

Verse X 4

C#M	      A/F#     Bm   Esus2     C#m
e|-------x------------9--------7----7---------x--------------|
B|-------5------------10-------7----7---------5--------------|
G|-------6------------9--------7----9---------6--------------|
D|-------6------------11-------9----9---------6--------------|
A|-------x------------9--------9----7---------x--------------|
E|-------5---------------------7--------------5--------------|
Use your thumb		   Quick Chord Change

We go back so far……
We were cool back in high school……
That's why you keep on runnin….
As the years they'll roll by….

 Chorus  X 2
e|-------x------------9--------7----7---------x--------------|
B|-------5------------10-------7----7---------5--------------|
G|-------6------------9--------7----9---------6--------------|
D|-------6------------11-------9----9---------6--------------|
A|-------x------------9--------9----7---------x--------------|
E|-------5---------------------7--------------5--------------|
You're the only one that knows me….

(I don’t do the whole Sean Kingston part)
Outro…

C#M	      A/F#     Bm   Esus2     C#m
e|-------x------------9--------7----7---------x--------------|
B|-------5------------10-------7----7---------5--------------|
G|-------6------------9--------7----9---------6--------------|
D|-------6------------11-------9----9---------6--------------|
A|-------x------------9--------9----7---------x--------------|
E|-------5---------------------7--------------5--------------|

Never find a love like this……


| /  slide up
| \  slide down
| h  hammer-on
| p  pull-off
| ~  vibrato
| +  harmonic
| x  Mute note
===============================================================================
Tap to rate this tab
# A B C D E F G H I J K L M N O P Q R S T U V W X Y Z