Nate Sallie - Inside Out tab

Hey this is my first tab here so tell me what i'm doing wrong or right plz d(^.^)b


Tuning standard E

(After Piano Intro)

E---------------------------------|
B---------------------------------|
G---------------------------------|
D---------------------------------|
A---------------------------------|
E--7-7--77-2-2--22-4-4--44-0-0--00|
                                Lets GO!

E---------------------------------|
B---------------------------------|
G---------------------------------|
D--9-9--99-4-4--44-6-6--66-2-2--22|
A--9-9--99-4-4--44-6-6--66-2-2--22|
E--7-7--77-2-2--22-4-4--44-0-0--00| (x2)

Verse 1:
x=Palm mute                                                            (x3)
E-------------------------------------------------------------------------|
B-------------------------------------------------------------------------|
G-------------------------------------------------------------------------|
D--9--9-999999999999-4--4-444444444444-6--6-666666666666-2--2-222222222222|
A--9--9-999999999999-4--4-444444444444-6--6-666666666666-2--2-222222222222|
E--7--7-777777777777-2--2-222222222222-4--4-444444444444-0--0-000000000000|
        xxxxxxxxxxxx      xxxxxxxxxxxx      xxxxxxxxxxxx      

       (Friday Night...)
       (You run upstairs...)
       (Guess It's Really...)


E--------------------------------|
B--------------------------------|
G--------------------------------|
D--4------2------4------2----4---|
A--4------2------4------2----4---|
E--2------0------2------0----2---|
   (...You dont have to fix...)

Chorus:

E---------------------------------|
B---------------------------------|
G---------------------------------|
D--9-9--99-4-4--44-6-6--66-2-2--22|
A--9-9--99-4-4--44-6-6--66-2-2--22|
E--7-7--77-2-2--22-4-4--44-0-0--00|(x5) But on second to last time palm mute last note.

Verse 2:
                                                                       (x2)
E-------------------------------------------------------------------------|
B-------------------------------------------------------------------------|
G-------------------------------------------------------------------------|
D--9--9-999999999999-4--4-444444444444-6--6-666666666666-2--2-222222222222|
A--9--9-999999999999-4--4-444444444444-6--6-666666666666-2--2-222222222222|
E--7--7-777777777777-2--2-222222222222-4--4-444444444444-0--0-000000000000|
        xxxxxxxxxxxx      xxxxxxxxxxxx      xxxxxxxxxxxx    

        (I run upstairs...)
        (Guess it's really...)

E--------------------------------|
B--------------------------------|
G--------------------------------|
D--4------2------4------2----4---|
A--4------2------4------2----4---|
E--2------0------2------0----2---|
   (...You dont have to fix...)

Chorus:

E---------------------------------|
B---------------------------------|
G---------------------------------|
D--9-9--99-4-4--44-6-6--66-2-2--22|
A--9-9--99-4-4--44-6-6--66-2-2--22|
E--7-7--77-2-2--22-4-4--44-0-0--00|(x7)

Modified Last Chorus:

E---------------------------------|
B---------------------------------|
G---------------------------------|
D---------------------------------|
A---------------------------------|
E--7-7--77-2-2--22-4-4--44-0-0--00|(x2)
  (No Matter what...)

E---------------------------------|
B---------------------------------|
G---------------------------------|
D--9-9--99-4-4--44-6-6--66-2-2--22|
A--9-9--99-4-4--44-6-6--66-2-2--22|
E--7-7--77-2-2--22-4-4--44-0-0--00|
   (I'll Always see you from...)    (Repeat until you decide the song is over :D)



Hope you enjoy the tab,
NiNjA!
Leave your comments plz
Tap to rate this tab
 
# A B C D E F G H I J K L M N O P Q R S T U V W X Y Z