Song name
# A B C D E F G H I J K L M N O P Q R S T U V W X Y Z

Nathan Asher And The Infantry - You Cannot Quit Smoking tab

capo 5th fret (not necessary, but it makes it a good bit easier, and i have tabbed it accordingly)

Intro            7x
e|----------|
B|----------|
G|----------|
D|------5---|
A|----5-----|
E|--3-------|

Verse (played throughout)
e|------------------------------------------|
B|------------------------------------------|
G|--------2--------0--------0--------0------|
D|-----2--------0--------0--------0---------|
A|--0--------2--------3--------2------------|
E|------------------------------------------|

Alternate verse 1
e|------------------------------------------|
B|----1--0------0--------0---------0--------|
G|-----------------0--------0---------0-----|
D|------------------------------------------|
A|-0--------2---------3---------2-----------|
E|------------------------------------------|

Alternate verse 2
e|------------------------------------------|
B|----1--1-----0--0------0--0-----0--0------|
G|----2--2-----0--0------0--0-----0--0------|
D|------------------------------------------|
A|-0--------2--------3---------2------------|
E|------------------------------------------|

That's pretty much it.  Easy song, just play the intro, then the main verse, throwing in
alternates occasionally.  If you listen to the CD you can figure out exactly where they
with the lyrics.  It also goes back into the intro once in the middle of the song and 
reverts back to the verse.
This CD is awesome.  I would highly recommend it.
Tap to rate this tab
# A B C D E F G H I J K L M N O P Q R S T U V W X Y Z