Song name
# A B C D E F G H I J K L M N O P Q R S T U V W X Y Z

Nathan Montgomery - Blues For Tuck tab

www.nathanmontgomery.com


CHECK THIS GUY OUT!!!! THIS 
IS ALL I HAVE BEEN ABLE TO 
TAB SO FAR AND IT TOOK 
FOREVER WATCHING THE VIDEO
ON YOUTUBE JUST TYPE "BLUES FOR TUCK"
IF ANYONE HAS FOUND OTHER 
TABS FOR THIS SONG PLEASE EMAIL ME ON YOUTUBE
"acoustic9876"

"Blues for Tuck"     NATHAN MONTGOMERY                              

Track 1 C#G#C#G#BC#
                                                          
C#||---------------------------|--4---4------5--4--0--7--|
B ||---------------------------|--2---2------0--0--0--0--|
G#||---------------------------|--3---3------5--5--5--7--|
C#||------0-------------3p0----|-------------------------|
G#||----------3h5--------------|----------3-----------5--|
C#||--0-------------5p0-----3--|--0----------------------|

                                                           
------7------12------10--7--|--10---9----------------------|
------0------12------9---7--|--7----7----------------------|
------7------12------10--8--|--8----8----------------------|
----------------------------|-----------------------3p0----|
----------------------------|-----------3p0-5p0------------|
--0-------9------10------0--|-------------------5p0-----3--|

--2h5--4----------------------||
--2-2--2----------------------||
--3-3--3----------------------||
-----------------------3p0----||
-----------3p0-5p0------------||
--0----------------5p0-----3--||
Tap to rate this tab
# A B C D E F G H I J K L M N O P Q R S T U V W X Y Z