Song name
# A B C D E F G H I J K L M N O P Q R S T U V W X Y Z

Nathan Reich - Heart Of Mine tab

-------------------------------------------------------------------------------
                             Heart Of Mine - Nathan Reich
-------------------------------------------------------------------------------
Tabbed by: Adriaan De Laender

Tuning: DADF#AD

Capo 2nd fret

you can buy his music here:
http://nathanreichmusic.com

INTRO

D  |--------------------------------------------------------------------------|
A  |--------0--------0--------0--------0--------0--------0--------0--------0--|
F# |----0-----------------0--------0--------0--------0--------0--------0------|
D  |------0-------0---------0--------0--------0--------0--------0--------0----|
A  |-----------0h2-------2/4------0-------------------------------------------|
D  |--0------------------------------------5--------5--------4--------4-------|

D  |--------------------------------------------------------------------------|
A  |--------0--------0--------0--------0--------0--------0--------0--------0--|
F# |----0-----------------0--------0--------0--------0--------0--------0------|
D  |------0-------0---------0--------0--------0--------0--------0--------0----|
A  |-----------0h2-------2/4------0-------------------------------------------|
D  |--0------------------------------------5--------4--------2--------0-------|

D  |--------------------------------------------0-----------------0-----------|
A  |--------0--------0--------0--------0-----------------0-----------------0--|
F# |----0-----------------0--------0--------0--------0--------0--------0------|
D  |------0-------0---------0--------0--------0--------0--------0--------0----|
A  |-----------0h2-------2/4------0-------------------------------------------|
D  |--0------------------------------------5--------5--------4--------4-------|

D  |--------------------------------------------------------------------------|
A  |--------0--------0--------0--------0--------0--------0--------0--------0--|
F# |----0-----------------0--------0--------0--------0--------0--------0------|
D  |------0-------0---------0--------0--------0--------0--------0--------0----|
A  |-----------0h2-------2/4------0-------------------------------------------|
D  |--0------------------------------------5--------4--------2--------0-------|

VERSE 1

     Her father was a concrete man
D  |--------------------------------------------------------------------------|
A  |--------0--------0--------0--------0--------0--------0--------0--------0--|
F# |----0-----------------0--------0--------0--------0--------0--------0------|
D  |------0-------0---------0--------0--------0--------0--------0--------0----|
A  |-----------0h2-------2/4------0-------------------------------------------|
D  |--0------------------------------------5--------5--------4--------4-------|

    And her mother was a painter
D  |--------------------------------------------------------------------------|
A  |--------0--------0--------0--------0--------0--------0--------0--------0--|
F# |----0-----------------0--------0--------0--------0--------0--------0------|
D  |------0-------0---------0--------0--------0--------0--------0--------0----|
A  |-----------0h2-------2/4------0-------------------------------------------|
D  |--0------------------------------------5--------5--------4--------4-------|

    Born with good hands
D  |--------------------------------------------0-----------------------------|
A  |--------0--------0--------0--------0-----------------0--------0--------0--|
F# |----0-----------------0--------0--------0--------0--------0--------0------|
D  |------0-------0---------0--------0--------0--------0--------0--------0----|
A  |-----------0h2-------2/4------0-------------------------------------------|
D  |--0------------------------------------5--------5--------4--------4-------|

    She was born a creator
D  |--------------------------------------------------------------------------|
A  |--------0--------0--------0--------0--------0--------0--------0--------0--|
F# |----0-----------------0--------0--------0--------0--------0--------0------|
D  |------0-------0---------0--------0--------0--------0--------0--------0----|
A  |-----------0h2-------2/4------0-------------------------------------------|
D  |--0------------------------------------5--------5--------4--------4-------|

    But the coiled heat of this neon light
D  |--------------------------------------------0-----------------0-----------|
A  |--------0--------0--------0--------0-----------------0-----------------0--|
F# |----0-----------------0--------0--------0--------0--------0--------0------|
D  |------0-------0---------0--------0--------0--------0--------0--------0----|
A  |-----------0h2-------2/4------0-------------------------------------------|
D  |--0------------------------------------5--------5--------4--------4-------|

    Won't help anyone find anything tonight
D  |--------------------------------------------------------------------------|
A  |--------0--------0--------0--------0-----------------0-----------------0--|
F# |----0-----------------0--------0--------0--------0--------0--------0------|
D  |------0-------0---------0--------0--------0--------0--------0--------0----|
A  |-----------0h2-------2/4------0-------------------------------------------|
D  |--0------------------------------------5--------5--------4--------4-------|

    Doesn't feel like rain but you know it might
D  |--------------------------------------------0-----------------------------|
A  |--------0--------0--------0--------0-----------------0--------0--------0--|
F# |----0-----------------0--------0--------0--------0--------0--------0------|
D  |------0-------0---------0--------0--------0--------0--------0--------0----|
A  |-----------0h2-------2/4------0-------------------------------------------|
D  |--0------------------------------------5--------5--------4--------4-------|

    You won't find anything tonight
D  |------------------------------------------------|
A  |--------0--------0--------0--------0--------0---|
F# |----0-----------------0--------0--------0-------|
D  |------0-------0---------0--------0--------0-----|
A  |-----------0h2-------2/4------0-----------------|
D  |--0------------------------------------0--------|

CHORUS

    She said I'll leave in the morning time
D  |--------------------------------------------------------------------------|
A  |--------0--------0--------0--------0--------0--------0--------0--------0--|
F# |----0--------0--------0--------0--------0--------0--------0--------0------|
D  |------0--------0--------0--------0--------0--------0--------0--------0----|
A  |---5--------7--------9--------9-------------------------------------------|
D  |---------------------------------------5--------5--------0--------0-------|

    Straightest road from my twisted mind
D  |--------------------------------------------------------------------------|
A  |--------0--------0--------0--------0--------0--------0--------0--------0--|
F# |----0--------0--------0--------0--------0--------0--------0--------0------|
D  |------0--------0--------0--------0--------0--------0--------0--------0----|
A  |--------------------------------------------------------------------------|
D  |---9-------9--------7--------7---------5--------5--------0--------0-------|

    For the love that I placed on the line
D  |--------------------------------------------------------------------------|
A  |--------0--------0--------0--------0--------0--------0--------0--------0--|
F# |----0--------0--------0--------0--------0--------0--------0--------0------|
D  |------0--------0--------0--------0--------0--------0--------0--------0----|
A  |---5--------7--------9--------9-------------------------------------------|
D  |---------------------------------------5--------5--------0--------0-------|

    I'll never understand this heart of mine
D  |--------------------------------------------------------------------------|
A  |--------0--------0--------0--------0--------0--------0--------0--------0--|
F# |----0--------0--------0--------0--------0--------0--------0--------0------|
D  |------0--------0--------0--------0--------0--------0--------0--------0----|
A  |--------------------------------------------------------------------------|
D  |---9-------9--------7--------7---------5--------5--------0--------0-------|

VERSE 2
     
D  |--------------------------------------------------------------------------|
A  |--------0--------0--------0--------0-----------------0-----------------0--|
F# |----0-----------------0--------0--------0--------0--------0--------0------|
D  |------0-------0---------0--------0--------0--------0--------0--------0----|
A  |-----------0h2-------2/4------0-------------------------------------------|
D  |--0------------------------------------5--------5--------4--------4-------|

D  |--------------------------------------------------------------------------|
A  |--------0--------0--------0--------0--------0--------0--------0--------0--|
F# |----0-----------------0--------0--------0--------0--------0--------0------|
D  |------0-------0---------0--------0--------0--------0--------0--------0----|
A  |-----------0h2-------2/4------0-------------------------------------------|
D  |--0------------------------------------5--------4--------2--------0-------|

    Two years in New York City
D  |--------------------------------------------------------------------------|
A  |--------0--------0--------0--------0--------0--------0--------0--------0--|
F# |----0-----------------0--------0--------0--------0--------0--------0------|
D  |------0-------0---------0--------0--------0--------0--------0--------0----|
A  |-----------0h2-------2/4------0-------------------------------------------|
D  |--0------------------------------------5--------5--------4--------4-------|

    Still lost on the train
D  |--------------------------------------------------------------------------|
A  |--------0--------0--------0--------0--------0--------0--------0--------0--|
F# |----0-----------------0--------0--------0--------0--------0--------0------|
D  |------0-------0---------0--------0--------0--------0--------0--------0----|
A  |-----------0h2-------2/4------0-------------------------------------------|
D  |--0------------------------------------5--------5--------4--------4-------|

    So this is what it looks like
D  |--------------------------------------------0-----------------0-----------|
A  |--------0--------0--------0--------0-----------------0-----------------0--|
F# |----0-----------------0--------0--------0--------0--------0--------0------|
D  |------0-------0---------0--------0--------0--------0--------0--------0----|
A  |-----------0h2-------2/4------0-------------------------------------------|
D  |--0------------------------------------5--------5--------4--------4-------|

    To see a man go insane
D  |--------------------------------------------------------------------------|
A  |--------0--------0--------0--------0--------0--------0--------0--------0--|
F# |----0-----------------0--------0--------0--------0--------0--------0------|
D  |------0-------0---------0--------0--------0--------0--------0--------0----|
A  |-----------0h2-------2/4------0-------------------------------------------|
D  |--0------------------------------------5--------5--------4--------4-------|

    She rents a new room, puts her mattress on the floor
D  |--------------------------------------------0-----------------0-----------|
A  |--------0--------0--------0--------0-----------------0-----------------0--|
F# |----0-----------------0--------0--------0--------0--------0--------0------|
D  |------0-------0----------0--------0--------0--------0--------0--------0----|
A  |-----------0h2-------2/4------0-------------------------------------------|
D  |--0------------------------------------5--------5--------4--------4-------|

    The phone doesn't ring like it used to anymore
D  |--------------------------------------------------------------------------|
A  |--------0--------0--------0--------0--------0--------0--------0--------0--|
F# |----0-----------------0--------0--------0--------0--------0--------0------|
D  |------0-------0---------0--------0--------0--------0--------0--------0----|
A  |-----------0h2-------2/4------0-------------------------------------------|
D  |--0------------------------------------5--------5--------4--------4-------|

    And all your life you've been waiting by the door
D  |--------------------------------------------0-----------------0-----------|
A  |--------0--------0--------0--------0-----------------0-----------------0--|
F# |----0-----------------0--------0--------0--------0--------0--------0------|
D  |------0-------0---------0--------0--------0--------0--------0--------0----|
A  |-----------0h2-------2/4------0-------------------------------------------|
D  |--0------------------------------------5--------5--------4--------4-------|

    But you're not waiting anymore
D  |--------------------------------------------------------------------------|
A  |--------0--------0--------0--------0--------0--------0--------0--------0--|
F# |----0-----------------0--------0--------0--------0--------0--------0------|
D  |------0-------0---------0--------0--------0--------0--------0--------0----|
A  |-----------0h2-------2/4------0-------------------------------------------|
D  |--0------------------------------------5--------4--------2--------0-------|

CHORUS

    She said I'll leave in the morning time
D  |--------------------------------------------------------------------------|
A  |--------0--------0--------0--------0--------0--------0--------0--------0--|
F# |----0--------0--------0--------0--------0--------0--------0--------0------|
D  |------0--------0--------0--------0--------0--------0--------0--------0----|
A  |---5--------7--------9--------9-------------------------------------------|
D  |---------------------------------------5--------5--------0--------0-------|

    Straightest road from my twisted mind
D  |--------------------------------------------------------------------------|
A  |--------0--------0--------0--------0--------0--------0--------0--------0--|
F# |----0--------0--------0--------0--------0--------0--------0--------0------|
D  |------0--------0--------0--------0--------0--------0--------0--------0----|
A  |--------------------------------------------------------------------------|
D  |---9-------9--------7--------7---------5--------5--------0--------0-------|

    For the love that I placed on the line
D  |--------------------------------------------------------------------------|
A  |--------0--------0--------0--------0--------0--------0--------0--------0--|
F# |----0--------0--------0--------0--------0--------0--------0--------0------|
D  |------0--------0--------0--------0--------0--------0--------0--------0----|
A  |---5--------7--------9--------9-------------------------------------------|
D  |---------------------------------------5--------5--------0--------0-------|

    I'll never understand this heart of mine
D  |--------------------------------------------------------------------------|
A  |--------0--------0--------0--------0--------0--------0--------0--------0--|
F# |----0--------0--------0--------0--------0--------0--------0--------0------|
D  |------0--------0--------0--------0--------0--------0--------0--------0----|
A  |--------------------------------------------------------------------------|
D  |---9-------9--------7--------7---------5--------5--------0--------0-------|

BRIDGE
    
D  |--------------------------------------------------------------------------|
A  |---------0--------0--------0--------0--------0--------0--------0-------0--|
F# |-----0--------0--------0----------0------0--------0--------0--------0-----|
D  |-------0--------0--------0-----------------0--------0--------0--------0---|
A  |-------------0--------0------- 0h2p0-------------0--------0--------0------|
D  |---0------------------------------------0---------------------------------|

    And I'll repair the x-rays in your eyes
D  |----------------------------------------------------------------------------------|
A  |--------0--------0--------0--------0--------0--------0--------0--------0--------0-|
F# |----0--------0--------0--------0--------0--------0--------0--------0--------0-----|
D  |------0--------0--------0--------0--------0--------0--------0--------0--------0---|
A  |---2--------2--------2--------2--------0--------0--------0--------1--------2------|
D  |----------------------------------------------------------------------------------|

    The radiation in your mind
D  |--------------------------------------------------------------------------|
A  |--------0--------0--------0--------0--------0--------0--------0--------0--|
F# |----0--------0--------0--------0--------0--------0--------0--------0------|
D  |------0--------0--------0--------0--------0--------0--------0--------0----|
A  |---2--------2--------2--------0--------0--------0--------1--------2-------|
D  |--------------------------------------------------------------------------|

     And I'll tell you now
D  |--------------------------------------------------------------------------|
A  |--------0--------0--------0--------0--------0--------0--------0--------0--|
F# |----0--------0--------0--------0--------0--------0--------0--------0------|
D  |------0--------0--------0--------0--------0--------0--------0--------0----|
A  |---2--------2--------2--------2--------0--------4--------4--------4-------|
D  |--------------------------------------------------------------------------|

D  |----------------------------------------|
A  |--------0--------0--------0--------0----|
F# |----0--------0--------0--------0--------|
D  |------0--------0--------0--------0------|
A  |---4--------4--------4--------4---------|
D  |----------------------------------------|

     Don't leave me here
D  |--------------------------------------------------------------------------|
A  |--------0--------0--------0--------0--------0--------0--------0--------0--|
F# |----0--------0--------0--------0--------0--------0--------0--------0------|
D  |------0--------0--------0--------0--------0--------0--------0--------0----|
A  |---5--------2--------0--------4--------4--------4--------4--------4-------|
D  |--------------------------------------------------------------------------|

D  |--------------------|
A  |--------0--------0--|
F# |----0--------0------|
D  |------0--------0----|
A  |---4--------4-------|
D  |--------------------|

    These walls have grown
D  |------------------------------------------------------------------|
A  |--------0--------0--------0--------0--------0--------0--------0---|
F# |----0--------0--------0--------0--------0--------0--------0-------|
D  |------0--------0--------0--------0--------0--------0--------0-----|
A  |---5--------2--------2--------2--------0--------4--------4--------|
D  |------------5-----------------------------------7-----------------|

D  |--------------------|
A  |--------0--------0--|
F# |----0--------0------|
D  |------0--------0----|
A  |---4--------4-------|
D  |--------------------|

    But I'm still here
D  |--------------------------------------------------------------------------|
A  |--------0--------0--------0--------0--------0--------0--------0--------0--|
F# |----0--------0--------0--------0--------0--------0--------0--------0------|
D  |------0--------0--------0--------0--------0--------0--------0--------0----|
A  |---2--------2--------2--------0--------4--------4--------4--------4-------|
D  |---5-----------------------------------7----------------------------------|

D  |----------------------------------------|
A  |--------0--------0--------0--------0----|
F# |----0--------0--------0--------0--------|
D  |------0--------0--------0--------0------|
A  |---4--------4--------4--------4---------|
D  |----------------------------------------|

    Alone
D  |-----|
A  |--0--|
F# |--0--|
D  |--0--|
A  |--0--|
D  |--0--|

END

     So I'll leave in the morning time
D  |---------------------|
A  |---------------------|
F# |---------------------|
D  |--0---0---0----------|
A  |--5---7---9---5---0--|
D  |--------------5---0--|

     Straightest road from my twisted mind
D  |---------------------|
A  |---------------------|
F# |---------------------|
D  |---------------------|
A  |--9---9---5---0------|
D  |--9---7---5---0------|

    For the love that I placed on the line
D  |---------------------|
A  |---------------------|
F# |---------------------|
D  |--0---0---0----------|
A  |--5---7---9---5---0--|
D  |--------------5---0--|

    I'll never understand this heart of mine
D  |---------------------|
A  |---------------------|
F# |---------------------|
D  |---------------------|
A  |--9---9---5---0------|
D  |--9---7---5---0------|

    I'll never understand this heart of mine
D  |--------------0------|
A  |--------------0------|
F# |--------------0------|
D  |--------------0------|
A  |--9---9---5---0------|
D  |--9---7---5---0------|



************************************

| /   slide up
| \   slide down
| h   hammer-on
| p   pull-off
| ~   vibrato
| +   harmonic
| x   Mute note
| b   Bend
| pb  Pre-bend
| br  Bend release
| pbr Pre-bend release
| brb Bend release bend

************************************
Tap to rate this tab
# A B C D E F G H I J K L M N O P Q R S T U V W X Y Z